Guitaretab - guitar tabs
Song name
# A B C D E F G H I J K L M N O P Q R S T U V W X Y Z

Misc Unsigned Bands - These Hearts - Shed Like To Wear The Pants But She Cant Fit Into Mine tab

This is simplified but it all sounds good
mainly the rhythm riffs

Intro
E:|------------------------|
B:|------------------------|
G:|-7--------3-333---------|
D:|-7-3333---3-333---5555--|
A:|-5-3333---1-111---5555--|
E:|---1111-----------3333--| X2

E:|------------------------------------|
B:|------------------------------------|
G:|-7--------------------3-333---------|
D:|-7-3333--xx-5-3-2-3---3-333---5555--|
A:|-5-3333--xx-----------1-111---5555--|
E:|---1111--xx-------------------3333--|

E:|------------------------|
B:|------------------------|
G:|-7--------3-333---------|
D:|-7-3333---3-333---5555--|
A:|-5-3333---1-111---5555--|
E:|---1111-----------3333--|

Let it all die down....
E:|------------------------------------------------------|
B:|------------------------------------------------------|
G:|-7-77777--9--5-55555--9-101010101010---9-99999999999--|
D:|-x-xxxxx--x--x-xxxxx--x--x-x-x-x-x-x---9-xxxxxxxxxxx--|
A:|-5-55555--7--3-33333--7--8-8-8-8-8-8---7-77777777777--|
E:|------------------------------------------------------|

She Said What are you waiting for.....

Guitar 1                  PM
E:|--------------|     |-------|
B:|--------------|     |-------|
G:|-9--10101010--|     |-------|
D:|-9--10101010--|     |-5555--|
A:|-7---8-8-8-8--|     |-5555--|
E:|--------------| X4  |-3333--|
  
Guitar 2(this might be the bass line but it sounds good)
E:|------------------|
B:|------------------|
G:|-3-3333---5-7777--|
D:|-3-3333---5-7777--|
A:|-1-1111---3-5555--|
E:|------------------| X4

She Said What Are you Waiting For....
Guitar 1                             
(1st and 3rd riff only)        PM      
E:|-------------------------- |-------|
B:|-------------------------- |-------|
G:|-9--10101010---12-10-9-10- |-------|
D:|-9--10101010----x--x-x--x- |-5555--|
A:|-7---8-8-8-8---10--8-7--8- |-5555--|
E:|-------------------------- |-3333--|


Looking For A Sign....
     PM     PM      PM      PM
E:|--------------------------------------|
B:|--------------------------------------|
G:|-3333333333333333---5555555555555555--|
D:|-3333333333333333---5555555555555555--|
A:|-1111111111111111---3333333333333333--|
E:|--------------------------------------| X2


I know it might not look like much...
E:|--------------------------------------|
B:|--------------------------------------|
G:|-3333333333333333---5555555555555555--|
D:|-3333333333333333---5555555555555555--|
A:|-1111111111111111---3333333333333333--|
E:|--------------------------------------| X2

That im fine....
E:|----------------|
B:|----------------|
G:|-7--------------|
D:|-7--77--77--77--|
A:|-5--77--77--77--|
E:|----55--55--55--| X2
[ Tab from: http://www.guitaretab.com/m/misc-unsigned-bands/115602.html ]
I dont think its too much to ask...
     PM     PM      PM      PM
E:|--------------------------------------|
B:|--------------------------------------|
G:|-3333333333333333---5555555555555555--|
D:|-3333333333333333---5555555555555555--|
A:|-1111111111111111---3333333333333333--|
E:|--------------------------------------| X2

When Your Old....
E:|--------------------------------------|
B:|--------------------------------------|
G:|-3333333333333333---5555555555555555--|
D:|-3333333333333333---5555555555555555--|
A:|-1111111111111111---3333333333333333--|
E:|--------------------------------------| X2

Your heart will never say...
E:|----------------|
B:|----------------|
G:|-7--------------|
D:|-7--77--77--77--|
A:|-5--77--77--77--|
E:|----55--55--55--| X4


Let it all die down....
E:|------------------------------------------------------|
B:|------------------------------------------------------|
G:|-7-77777--9--5-55555--9-101010101010---9-99999999999--|
D:|-x-xxxxx--x--x-xxxxx--x--x-x-x-x-x-x---9-xxxxxxxxxxx--|
A:|-5-55555--7--3-33333--7--8-8-8-8-8-8---7-77777777777--|
E:|------------------------------------------------------|

She Said What are you waiting for.....

Guitar 1                  PM
E:|--------------|     |-------|
B:|--------------|     |-------|
G:|-9--10101010--|     |-------|
D:|-9--10101010--|     |-5555--|
A:|-7---8-8-8-8--|     |-5555--|
E:|--------------| X4  |-3333--|
  
Guitar 2(bass line)
E:|------------------|
B:|------------------|
G:|-3-3333---5-7777--|
D:|-3-3333---5-7777--|
A:|-1-1111---3-5555--|
E:|------------------| X4

She Said What Are you Waiting For....
Guitar 1                             
(1st and 3rd riff only)          PM      
E:|--------------------------  |-------|
B:|--------------------------  |-------|
G:|-9--10101010---12-10-9-10-  |-------|
D:|-9--10101010----x--x-x--x-- |-5555--|
A:|-7---8-8-8-8---10--8-7--8-- |-5555--|
E:|--------------------------- |-3333--|

Bridge with keyboard part
E:|---------------------------|
B:|---------------------------|
G:|---------------------------|
D:|-9-1010101010101010101010--|
A:|-9--x-x-x-x-x-x-x-x-x-x-x--|
E:|-7--8-8-8-8-8-8-8-8-8-8-8--| X4


2nd Half of Bass solo
E:|-----------------------------------|
B:|-----------------------------------|
G:|------2----------------------------|
D:|--3-3---3-5-3-3-5-3-3-5-3-5-3-5-3--|
A:|-----------------------------------|
E:|-----------------------------------| X8

E:|--------------|
B:|--------------|
G:|---2-5-5-7-5--|
D:|-3------------|
A:|--------------|
E:|--------------|

Outro
E:|-------------------------------------|
B:|-------------------------------------|
G:|-777-----------------333-------------|
D:|-777-777-10-10-10----333--333-5-5-5--|
A:|-555-777-10-10-10----111--333-5-5-5--|
E:|-----555--8--8--8---------111-3-3-3--| X4

E:|------------------|
B:|------------------|
G:|-7---------3------|
D:|-7-7-------3-7-3--|
A:|-5-7-10----1-7-3--|
E:|---5--8------5-1--|

              PM  PM
E:|----------------------|
B:|----------------------|
G:|-7---------333--------|
D:|-7-7-------333-777-3--|
A:|-5-7-10----111-777-3--|
E:|---5--8--------555-1--|
Related for These Hearts - Shed Like To Wear The Pants But She Cant Fit Into Mine tab
Advertisement will be closed in 10 seconds