Song name
# A B C D E F G H I J K L M N O P Q R S T U V W X Y Z

Misc Unsigned Bands - Retribution tab

Help us improve GuitareTab! Take a short survey!
Tuning: Drop C
Song - Retribution
Band - xBarcadiax



D|----------------------------------------------------------------------|
A|----------------------------------------------------------------------|
F|----------------------------------------------------------------------|(5x)
C|----------------------------------------------------------------------|
G|--10--6--5--3--3-5-6--------------------------------------------------|
C|--10--6--5--3--3-5-6-000000000000000000-------------------------------|
                       ..................

D|----------------------------------------------------------------------|
A|----------------------------------------------------------------------|
F|----------------------------------------------------------------------|
G|0-0-0-0--3/5--0-0-0-0--5/6--0-0-0-0--3/5--00-6-00-5-00-3/5------------|(5x)
C|0-0-0-0--3/5--0-0-0-0--5/6--0-0-0-0--3/5--00-6-00-5-00-3/5------------|

                       This is it for now, i'll finish it later.
Don't be to harsh its my first tab
Related for Retribution tab