Song name
# A B C D E F G H I J K L M N O P Q R S T U V W X Y Z

Misc Unsigned Bands - The Ohio State University - Carmen Ohio tab

The Ohio State University's Alma Mater

E|--------------------------------------------------------|
B|--------------------------------------------------------|
G|-----------------------------------6-----7--4-----------|
D|--2/7--7--7--6--7--4--7---------------7--------7--6--7--|
A|-------------------------7------7-----------------------|
E|--------------------------------------------------------|

E|------------------------------------------------|
B|------------------------------------------------|
G|---------------------------6-----7--4-----------|
D|--7--7--6--7--4--7------------7--------7--6--7--|
A|--------------------7---------------------------|
E|------------------------------------------------|

E|---------------------------------------------------|
B|---------------------------------------------------|
G|--6--6--4--6--7--6--4------6--6--4--6--7--6--4-----|
D|---------------------------------------------------|
A|---------------------------------------------------|
E|---------------------------------------------------|

E|-------------------------------------------------------------|
B|-------------------------------------------------------------|
G|------------------------------6-----7--4---------------------|
D|--7--7--6--7--4--7---------------7--------------7----6----7--|
A|--------------------7------7---------------------------------|
E|-------------------------------------------------------------|
Tap to rate this tab
# A B C D E F G H I J K L M N O P Q R S T U V W X Y Z