Song name
# A B C D E F G H I J K L M N O P Q R S T U V W X Y Z

Misc Unsigned Bands - Laser Inc - Det Var En Gng En Liten Fgel tab

Help us improve GuitareTab! Take a short survey!
Easy intro. Standard tuning.

|-------------------------------------------------------------------------|
|-------------------------------------------------------------------------|
|-------------------------------------------------------------------------|
|--------------5-5-5-55-4-------------------------------------------------|
|--2-2-2-22-2-------------5-55-55--8--4--44-55-52-------------------------|
|-------------------------------------------------------------------------|

|-------------------------------------------------------------------------|
|-------------------------------------------------------------------------|
|-------------------------------------------------------------------------|
|-------------------------------------------------------------------------|
|--2-2-22-2------------5-55-55--8--4--44-55-52----------------------------|
|-----------3-3-3-33-2----------------------------------------------------|
Related for Laser Inc - Det Var En Gng En Liten Fgel tab