Song name
# A B C D E F G H I J K L M N O P Q R S T U V W X Y Z

Misc Unsigned Bands - Abnormality - Visions tab

Note:  I just copied this tab from the .txt files Abnormality uploaded on their Myspace 
 No credit to me whatsoever.

Abnormality - Visions (standard tuning E-A-D-G-B-E, except 7-string B-E-A-D-G-B-E where noted)


riff 1 - 1x  		riff 2a - 4x
-----------------    --------------------|
-----------------    --------------------|
-----------------    --------------------|
---------3*------     ---------33--------|
-0-4-1-0---0-4-1-     -----2255--5522----|
-0-4-1-0---0-4-1-     -1144----------44--|
pm......   .....


riff 1 - 8x


riff 2b - 2x
------------------|------------------|------------------|------------------|
------------------|------------------|------------------|------------------|
------------------|------------------|------------------|------------------|
---------33-------|---------33--3366-|---------33-------|---------33-------|
-----2255--5522---|-----2255--55-----|------2255--5522--|-----5522--2255---|
-1144----------44-|-1144-------------|-1144----------44-|-1144----------44-|


riff 1 - 8x


riff 3 - 4x (rest for 1st)
-------------------------|--------------------------|
-------------------------|--------------------------|
-------------------------|--------------------------|
-----7-8---------7-8-----|-----7-8-----9---------10-|
---6-----7-----6-----7---|---6-----7-----8-----9----|
-5---------6-5---------6-|-5---------6-----7-8------|


riff 4 - 1x
-----------------|-----------------|-----------------|-----------------|
-----------------|-----------------|-----------------|-----------------|
-------------.---|-------------.---|-------------.---|------------.----|
-----5-6------/.-|-----7-8------/.-|-----3-4------/.-|-----5-6------/.-|
---4-----5-------|---6-----7-------|---2-----3-------|---4-----5-------|
-3---------4-----|-5---------6-----|-1---------2-----|-3---------4-----|


riff 5 (gtr 1 - 7 str) - 4x        riff 5 (gtr 2 - 6 str)----------| 4x
--------------|--------------        --------------|---------------|
--------------|--------------        --------------|---------------|
--------------|--------------        --------------|---------------|
------5-------|------6-------        ------5-------|------6--------|
----4---4---4-|----5---5---5-        -3--4---4-3-4-|-4--5---5-4-5--|
-3--------3---|-4--------4-----------------------------------------|


riff 6a - 2x
-----------------------|-----------------------|
-----------------------|-----------------------|
-----------------------|-----------------------|
-----------------------|-----------------------|
-2---5-2-3-4-2-3-5-2-3-|-1---5-4-2-4-3-2-5-4-3-|
-0---3-0-1-2-0-1-3-0-1-|-0---3-2-0-2-1-0-3-2-1-|
     pm................      ..................


riff 6b - 4x
-------------------------|-------------------------|
-------------------------|-------------------------|
-------------------------|---3---------------------|
-------------------------|-----2-------------------|
-2-4-3-5-2-3-4-2-3-5-2-3-|-1-----5-4-2-4-3-2-5-4-3-|
-0-2-1-3-0-1-2-0-1-3-0-1-|-0-----3-2-0-2-1-0-3-2-1-|
   pm.......   ...   ...           ...   ..........


riff 2b - 2x


riff 2c - 2x
------------------|------------------|
------------------|------------------|
------------------|------------------|
---------44-------|---------55-------|
-----3366--6633---|-----4477--7744---|
-2255----------55-|-3366----------66-|


riff 2b - 1x
riff 2c - 2x


riff 7 - 6x
------------------|------------------|------------------|
------------------|------------------|------------------|
------------------|------------------|------------------|
------------------|------------------|------------------|
----43----5-2-3-5-|----43----4-2-3-4-|----43----5-2-3-5-|
-036--636-3-0-1-3-|-036--636-2-0-1-2-|-036--636-3-0-1-3-|
          pm......	     ........     	........

--------------------------|
--------------------------|
--------------------------|
--------------------------|
----43----4-2-3-4-5-2-3-5-|
-036--636-2-0-1-2-3-0-1-3-|
	  ................

(last time)
----------------------------------|
----------------------------------|
--------------------------3*------|
----43----4-2-3-4-0-4-1-0---0-4-1-|
-036--636-2-0-1-2-0-4-1-0---0-4-1-|
          pm.............   ......


riff 2b - 2x


-3-
-1- end
Tap to rate this tab
 
# A B C D E F G H I J K L M N O P Q R S T U V W X Y Z