Guitaretab - guitar tabs
Song name
# A B C D E F G H I J K L M N O P Q R S T U V W X Y Z

Misc Unsigned Bands - Timothy Michael Wynn - For Mother Russia tab

Sup, UG community. Here's FOR MOTHER RUSSIA by Timothy Michael Wynn
from the Red Alert 3 OST. I first heard this song on YouTube and thought
it was kick-ass. So I tried playing it and figured it out with just a
few simple power chords in drop D. I'm thinking that this is played 
with 2 guitars, but guitar 2 only does a small solo at bars 9-12 in
the background which I couldn't figure out. (Sorry)
You might notice that my way of creating tabs is a bit different, 
but I find my way a bit more organized and understandable. Although, you
might need to listen to the song to get the timing right. Anyways, this
is pretty much the best I can do by ear and I hope you enjoy it.

 x = palm mute

~~~~~~~~~~~~~~~~~~~~~~~~~~~~~~~~~~~~~~~~~~~~~~~~~~~~~~~~~~~~~~~~~~~~~~~~~~~~~~~~~~~~

RED ALERT 3 OST
TIMOTHY MICHAEL WYNN

FOR MOTHER RUSSIA

TUNING: DROP D (DADGBE)

1             1   -   2   -   3   -   4   -   
e|||------------------------------------------|--------------------------------|
B|||------------------------------------------|--------------------------------|
G|||------------------------------------------|--------------------------------|
D|||----------0-------------------------------|--------------------------------|
A|||----------0-------------------------------|--------------------------------|
D|||----------0-------------------------------|--------------------------------|

  |--------------------------------|--------------------------------||
  |--------------------------------|--------------------------------||
  |--------------------------------|--------------------------------||
  |--------------------------------|--------------------------------||
  |--------------------------------|--------------------------------||
  |--------------------------------|--------------------------------||

5  1   -   2   -   3   -   4   -    1   -   2   -   3   -   4   -   
 ||--------------------------------|--------------------------------|
 ||--------------------------------|--------------------------------|
 ||--------------------------------|--------------------------------|
 ||0x0x0x0x0x--------------3-------|0x0x0x0x0x--------------6-------|
 ||0x0x0x0x0x--------------3-------|0x0x0x0x0x--------------6-------|
 ||0x0x0x0x0x--------------3-------|0x0x0x0x0x--------------6-------|

  |--------------------------------|--------------------------------||
  |--------------------------------|--------------------------------||
  |--------------------------------|--------------------------------||
  |0x0x0x0x0x--------------3-------|0x0x0x0x0x----------5---6-6-----||
  |0x0x0x0x0x--------------3-------|0x0x0x0x0x----------5---6-6-----||
  |0x0x0x0x0x--------------3-------|0x0x0x0x0x----------5---6-6-----||

9
 ||--------------------------------|--------------------------------|
 ||--------------------------------|--------------------------------|
 ||--------------------------------|--------------------------------|
 ||0x0x0x0x0x--0x0x3---3---5---5---|0x0x0x0x0x--0x0x3---5---6-------|
 ||0x0x0x0x0x--0x0x3---3---5---5---|0x0x0x0x0x--0x0x3---5---6-------|
 ||0x0x0x0x0x--0x0x3---3---5---5---|0x0x0x0x0x--0x0x3---5---6-------|

  |--------------------------------|--------------------------------||
  |--------------------------------|--------------------------------||
  |--------------------------------|--------------------------------|| x2
  |0x0x0x0x0x--0x0x3---3---5---5---|0x0x0x0x0x--0x0x6---6---5-------||
  |0x0x0x0x0x--0x0x3---3---5---5---|0x0x0x0x0x--0x0x6---6---5-------||
  |0x0x0x0x0x--0x0x3---3---5---5---|0x0x0x0x0x--0x0x6---6---5-------||

13 1   -   2   -   3   -   4   -    1   -   2   -   3   -   4   -
 ||--------------------------------|--------------------------------|
 ||--------------------------------|--------------------------------|
 ||--------------------------------|--------------------------------|
 ||--------------------------------|--------------------------------|
 ||--------5-----------------------|--------5-----------------------|
 ||0---0-----------6---6-5---5-3---|0---0-----------3---3-5---5-6---|
[ Tab from: http://www.guitaretab.com/m/misc-unsigned-bands/189721.html ]
  |--------------------------------|--------------------------------||
  |--------------------------------|--------------------------------||
  |--------------------------------|--------------------------------||
  |--------------------------------|--------------------------------||
  |--------5-----------------------|--------5-----------------------||
  |0---0-----------6---6-5---5-3---|0---0-----------3---3-5---5-6---||

17
 ||--------------------------------|--------------------------------|
 ||--------------------------------|--------------------------------|
 ||--------------------------------|--------------------------------|
 ||----------------6-----5-----3---|----------------3-----5-----6---|
 ||----------------6-----5-----3---|----------------3-----5-----6---|
 ||0---0---12------6-----5-----3---|0---0---12------3-----5-----6---|

  |--------------------------------|--------------------------------||
  |--------------------------------|--------------------------------||
  |--------------------------------|--------------------------------||
  |----------------6-----5-----3---|----------------3-----5-----6---||
  |----------------6-----5-----3---|----------------3-----5-----6---||
  |0---0---12------6-----5-----3---|0---0---12------3-----5-----6---||

21 1   -   2   -   3   -   4   -    1   -   2   -   3   -   4   -
 ||--------------------------------|--------------------------------|
 ||--------------------------------|--------------------------------|
 ||--------------------------------|--------------------------------|
 ||0x0x0x0x0x0x0x3--0x0x0x0x0x0x5--|0x0x0x0x0x0x5---0-6-------------|
 ||0x0x0x0x0x0x0x3--0x0x0x0x0x0x5--|0x0x0x0x0x0x5---0-6-------------|
 ||0x0x0x0x0x0x0x3--0x0x0x0x0x0x5--|0x0x0x0x0x0x5---0-6-------------|

  |--------------------------------|--------------------------------||
  |--------------------------------|--------------------------------||
  |--------------------------------|--------------------------------|| x2
  |0x0x0x0x0x0x0x3--0x0x0x0x0x0x5--|0x0x0x0x0x0x6---0-5-------------||
  |0x0x0x0x0x0x0x3--0x0x0x0x0x0x5--|0x0x0x0x0x0x6---0-5-------------||
  |0x0x0x0x0x0x0x3--0x0x0x0x0x0x5--|0x0x0x0x0x0x6---0-5-------------||

25
 ||--------------------------------|--------------------------------|
 ||--------------------------------|--------------------------------|
 ||--------------------------------|--------------------------------|
 ||--------------------------------|--------------------------------|
 ||--------5-----------------------|--------5-----------------------|
 ||0---0-----------6---6-5---5-3---|0---0-----------3---3-5---5-6---|

  |--------------------------------|--------------------------------||
  |--------------------------------|--------------------------------||
  |--------------------------------|--------------------------------||
  |--------------------------------|--------------------------------||
  |--------5-----------------------|--------5-----------------------||
  |0---0-----------6---6-5---5-3---|0---0-----------3---3-5---5-6---||

29 1   -   2   -   3   -   4   -    1   -   2   -   3   -   4   -
 ||--------------------------------|--------------------------------|
 ||--------------------------------|--------------------------------|
 ||--------------------------------|--------------------------------|
 ||----------------9-----8-----6---|----------------6-----8-----9---|
 ||--------8-------9-----8-----6---|--------8-------6-----8-----9---|
 ||3---3-----------9-----8-----6---|3---3-----------6-----8-----9---|

  |--------------------------------|--------------------------------||
  |--------------------------------|--------------------------------||
  |--------------------------------|--------------------------------||
  |----------------9-----8-----6---|----------------6-----8-----9---||
  |--------8-------9-----8-----6---|--------8-------6-----8-----9---||
  |3---3-----------9-----8-----6---|3---3-----------6-----8-----9---||

33
 ||--------------------------------|--------------------------------|
 ||--------------------------------|--------------------------------|
 ||--------------------------------|--------------------------------|
 ||0x0x0x0x0x--0x0x0x0x0x----------|0x0x0x0x0x--0x0x0x0x1-----------|
 ||0x0x0x0x0x--0x0x0x0x0x----------|0x0x0x0x0x--0x0x0x0x1-----------|
 ||0x0x0x0x0x--0x0x0x0x0x----------|0x0x0x0x0x--0x0x0x0x1-----------|

  |--------------------------------|--------------------------------|||
  |--------------------------------|--------------------------------|||
  |--------------------------------|--------------------------------|||
  |0x0x0x0x0x--0x0x0x0x0x----------|0x0x0x0x0x--0x0x0x0x3---6-------|||
  |0x0x0x0x0x--0x0x0x0x0x----------|0x0x0x0x0x--0x0x0x0x3---6-------|||
  |0x0x0x0x0x--0x0x0x0x0x----------|0x0x0x0x0x--0x0x0x0x3---6-------|||
Related for Timothy Michael Wynn - For Mother Russia tab
Advertisement will be closed in 10 seconds