Song name
# A B C D E F G H I J K L M N O P Q R S T U V W X Y Z

Misc Unsigned Bands - Luj Yaj - Nco Kuv Me Me tab

Tab Credits:
Originally Tabbed By: Kevin Vang
Digitally Tabbed & Tab Released By: Bryant Yang

E|-12----9----------------9-------------------------------------------------|
B|------------12----10---------12----10-------------------------------------|
G|-----------------------------------------11----------9----------11--------|
D|-----------------------------------------------11---------11--------------|
A|--------------------------------------------------------------------------|
E|--------------------------------------------------------------------------|

E|-12----9-----------------------------------9------------------------------|
B|------------12----10----------10----12------------------------------------|
G|------------------------11---------------------------9----------11--------|
D|-----------------------------------------------11---------11--------------|
A|--------------------------------------------------------------------------|
E|--------------------------------------------------------------------------|

E|------------------------9-------------------------------------------------|
B|------10----------12---------12----10--------------------10----10---------|
G|-9----------11---------------------------11---9----11----------------11--9|
D|--------------------------------------------------------------------------|
A|--------------------------------------------------------------------------|
E|--------------------------------------------------------------------------|

E|-12----9----------------9-------------------------------------------------|
B|------------12----10---------12----10-------------------------------------|
G|-----------------------------------------11----------9----------11--------|
D|-----------------------------------------------11---------11--------------|
A|--------------------------------------------------------------------------|
E|--------------------------------------------------------------------------|

E|-12----9-----------------------------------9------------------------------|
B|------------12----10----------10----12------------------------------------|
G|------------------------11---------------------------9----------11--------|
D|-----------------------------------------------11---------11--------------|
A|--------------------------------------------------------------------------|
E|--------------------------------------------------------------------------|

E|------------------------9-------------------------------------------------|
B|------10----------12---------12----10--------------------10----10---------|
G|-9----------11---------------------------11---9----11----------------11--9|
D|--------------------------------------------------------------------------|
A|--------------------------------------------------------------------------|
E|--------------------------------------------------------------------------|

E|-----------9-----------------------9-----------------9------------12--9--9|
B|-10---12-------12---10---12-----------12---10---12-------12---10----------|
G|------------------------------11------------------------------------------|
D|--------------------------------------------------------------------------|
A|--------------------------------------------------------------------------|
E|--------------------------------------------------------------------------|

E|-12----9----------------9-------------------------------------------------|
B|------------12----10---------12----10-------------------------------------|
G|-----------------------------------------11----------9----------11--------|
D|-----------------------------------------------11---------11--------------|
A|--------------------------------------------------------------------------|
E|--------------------------------------------------------------------------|

E|-12----9-----------------------------------9------------------------------|
B|------------12----10----------10----12------------------------------------|
G|------------------------11---------------------------9----------11--------|
D|-----------------------------------------------11---------11--------------|
A|--------------------------------------------------------------------------|
E|--------------------------------------------------------------------------|

E|------------------------9-------------------------------------------------|
B|------10----------12---------12----10--------------------10----10---------|
G|-9----------11---------------------------11---9----11----------------11--9|
D|--------------------------------------------------------------------------|
A|--------------------------------------------------------------------------|
E|--------------------------------------------------------------------------|
Tap to rate this tab
# A B C D E F G H I J K L M N O P Q R S T U V W X Y Z