Song name
# A B C D E F G H I J K L M N O P Q R S T U V W X Y Z

Misc Unsigned Bands - Fit For Rivals - Crash tab

-------------------------------------------------------------------------------
			     Crash - Fit for Rivals
-------------------------------------------------------------------------------
Tabbed by: Kergash
Email: h_bjerkg@live.no

Tuning: Drop C

Aight, so I found this song and I thought it was friggin' amazing. (You can find it 
on youtube, http://www.youtube.com/watch?v=vc-b-t6RCvc) So I decided to tab it out.
What I've done is basically just put all the lead on one guitar, and the rhythm on 
the other, so yeah, Im not sure if this is EXACTLY how they play it, but its quite 
close in my ears.

Intro:

Guitar 1 (lead):
d|---------------------------------------------------------------------------|
A|---------------------------------------------------------------------------|
F|---------------------------------------------------------------------------|
C|8888888888888-----8888888888888-----8888888888888-----8888888888888--------|
G|--------------555---------------555---------------555---------------555----|
C|--------------555---------------555---------------555---------------555----|

d|----------------------------------------------------------------------------|
A|----------------------------------------------------------------------------|
F|----------------------------------------------------------------------------|
C|8888888888888-----8888888888888---------888----888---8------777-----777-XXXX|
G|--------------555---------------555-------------------------------------XXXX|
C|--------------555---------------555--555----555----55-5--333----333-----XXXX|


Guitar 2 (rhythm): (You strum the chord when the lead guitarist does)
d|---------------------------------------------------------------------------|
A|---------------------------------------------------------------------------|
F|---------------------------------------------------------------------------|
C|---------------------------------------------------------------------------|
G|555------555------555------555------555------555---------------------------|
C|555------555------555------555------555------555---------------------------|

Verse 1:

Guitar 1:
d|---------------------------------------------------------------------------|
A|---------------------------------------------------------------------------|
F|---------------------------------------------------------------------------|
C|----88888888888--------7777777777------8888888888------777777777777--------|
G|555-------------5333--------------3555------------5333---------------------|
C|555-------------5333--------------3555------------5333---------------------|

d|---------------------------------------------------------------------------|
A|---------------------------------------------------------------------------|
F|---------------------------------------------------------------------------|
C|---8----8----8----8----8----8----8----8---7---7---7---7---7---7---7---7----|
G|10---10---10---10---10---10---10---10---8---8---8---8---8---8---8---8------|
C|---------------------------------------------------------------------------|
PM-- - -- - -- - -- - -- - -- - -- - -- - - - - - - - - - - - - - - - - -

d|---------------------------------------------------------------------------|
A|---------------------------------------------------------------------------|
F|-----------------------------------------------------777-141414------------|
C|---8----8----8----8----8----8----8----8--------------xxx-xxxxxx------------|
G|10---10---10---10---10---10---10---10----8/00000000--555-121212------------|
C|-----------------------------------------8/00000000------------------------|
PM-- - -- - -- - -- - -- - -- - -- - -- -    --------


Guitar 2:
d|---------------------------------------------------------------------------|
A|---------------------------------------------------------------------------|
F|---------------------------------------------------------------------------|
C|-------------------------------------55-xxx-5555-xxx-555-xxx-33-xxx-3333---|
G|555------5333------3555------5333----55-xxx-5555-xxx-555-xxx-33-xxx-3333---|
C|555------5333------3555------5333----55-xxx-5555-xxx-555-xxx-33-xxx-3333---|

d|---------------------------------------------------------------------------|
A|---------------------------------------------------------------------------|
F|---------------------------------------------------------------------------|
C|xxx-333-xxx-55-xxx-5555-xxx-555-------------000-777------------------------|
G|xxx-333-xxx-55-xxx-5555-xxx-555-8/00000000--000-777------------------------|
C|xxx-333-xxx-55-xxx-5555-xxx-555-8/00000000--000-777------------------------|
PM				    --------

Chorus:

Guitar 1:
d|---------------------------------------------------------------------------|
A|---------------------------------------------------------------------------|
F|1212121212121212-1515151515151515-1414141414141414-------------------------|
C|xxxxxxxxxxxxxxxx-xxxxxxxxxxxxxxxx-xxxxxxxxxxxxxxxx-------------------------|
G|1010101010101010-1313131313131313-1212121212121212-875-875-----------------|
C|---------------------------------------------------875-875-----------------|
PM						      --  --

d|---------------------------------------------------------------------------|
A|---------------------------------------------------------------------------|
F|1212121212121212-1515151515151515-1414141414141414--777-141414-------------|
C|xxxxxxxxxxxxxxxx-xxxxxxxxxxxxxxxx-xxxxxxxxxxxxxxxx--xxx-xxxxxx-------------|
G|1010101010101010-1313131313131313-1212121212121212--555-121212-------------|
c|---------------------------------------------------------------------------|


Guitar 2:
d|---------------------------------------------------------------------------|
A|---------------------------------------------------------------------------|
F|---------33333333-22222222-------------------33333333-22222222-------------|
C|55555555-33333333-22222222----------55555555-33333333-22222222-000-777-----|
G|55555555-11111111-00000000-875-875--55555555-11111111-00000000-000-777-----|
C|55555555-------------------875-875--55555555-------------------000-777-----|
PM			      --  --

Verse 2:

Guitar 1:
d|---------------------------------------------------------------------------|
A|---------------------------------------------------------------------------|
F|---------------------------------------------------------------------------|
C|----88888888888--------7777777777------8888888888------777777777777--------|
G|555-------------5333--------------3555------------5333---------------------|
C|555-------------5333--------------3555------------5333---------------------|

d|---------------------------------------------------------------------------|
A|---------------------------------------------------------------------------|
F|---------------------------------------------------------------------------|
C|55-xxx-5555-xxx-555-xxx-33-xxx-3333-xxx-333-xxx-55-xxx-5555-xxx-555--------|
G|55-xxx-5555-xxx-555-xxx-33-xxx-3333-xxx-333-xxx-55-xxx-5555-xxx-555--------|
C|55-xxx-5555-xxx-555-xxx-33-xxx-3333-xxx-333-xxx-55-xxx-5555-xxx-555--------|

d|---------------------------------------------------------------------------|
A|---------------------------------------------------------------------------|
F|-----------777-141414------------------------------------------------------|
C|-----------xxx-xxxxxx------------------------------------------------------|
G|8/00000000-555-121212------------------------------------------------------|
C|8/00000000-----------------------------------------------------------------|
PM  --------


Guitar 2:
d|---------------------------------------------------------------------------|
A|---------------------------------------------------------------------------|
F|---------------------------------------------------------------------------|
C|-------------------------------------55-xxx-5555-xxx-555-xxx-33-xxx-3333---|
G|555------5333------3555------5333----55-xxx-5555-xxx-555-xxx-33-xxx-3333---|
C|555------5333------3555------5333----55-xxx-5555-xxx-555-xxx-33-xxx-3333---|

d|---------------------------------------------------------------------------|
A|---------------------------------------------------------------------------|
F|---------------------------------------------------------------------------|
C|xxx-333-xxx-55-xxx-5555-xxx-555-------------000-777------------------------|
G|xxx-333-xxx-55-xxx-5555-xxx-555-8/00000000--000-777------------------------|
C|xxx-333-xxx-55-xxx-5555-xxx-555-8/00000000--000-777------------------------|
PM				    --------

Chorus:

Guitar One:
d|---------------------------------------------------------------------------|
A|---------------------------------------------------------------------------|
F|1212121212121212-1515151515151515-1414141414141414-------------------------|
C|xxxxxxxxxxxxxxxx-xxxxxxxxxxxxxxxx-xxxxxxxxxxxxxxxx-------------------------|
G|1010101010101010-1313131313131313-1212121212121212-875-875-----------------|
C|---------------------------------------------------875-875-----------------|
PM						      --  --

d|---------------------------------------------------------------------------|
A|---------------------------------------------------------------------------|
F|1212121212121212-1515151515151515-1414141414141414--777-141414-------------|
C|xxxxxxxxxxxxxxxx-xxxxxxxxxxxxxxxx-xxxxxxxxxxxxxxxx--xxx-xxxxxx-------------|
G|1010101010101010-1313131313131313-1212121212121212--555-121212-------------|
C|---------------------------------------------------------------------------|x2


Guitar 2:
d|---------------------------------------------------------------------------|
A|---------------------------------------------------------------------------|
F|---------33333333-22222222-------------------33333333-22222222-------------|
C|55555555-33333333-22222222----------55555555-33333333-22222222-000-777-----|
G|55555555-11111111-00000000-875-875--55555555-11111111-00000000-000-777-----|
C|55555555-------------------875-875--55555555-------------------000-777-----|x2
PM			      --  --

Breakdown/Solo:

Guitar 1:
d|---------------------------------------------------------------------------|
A|---------------------------------------------------------------------------|
F|--10-3---5------10-3----------10-3---5------10-3---------------------------|
C|5-10-3-3-5-3--5-10-3-3-xxxx-5-10-3-3-5-3--5-10-3-3-xxxx--------------------|
G|5-08-1-3-3-3--5-08-1-3-xxxx-5-08-1-3-3-3--5-08-1-3-xxxx--------------------|
C|5------3---3--5------3-xxxx-5------3---3--5------3-xxxx--------------------|

d|----------------------------------------------------1010101010101010-------|
A|----------------------------------------------------xxxxxxxxxxxxxxxx-------|
F|121212121212121212-101010-121212121212121212-151515-7777777777777777-------|
C|xxxxxxxxxxxxxxxxxx-xxxxxx-xxxxxxxxxxxxxxxxxx-xxxxxx------------------------|
G|101010101010101010-080808-101010101010101010-131313------------------------|
C|---------------------------------------------------------------------------|

d|1212121212121212-14141414141414--------------------------------------------|
A|xxxxxxxxxxxxxxxx-xxxxxxxxxxxxxx--------------------------------------------|
F|1010101010101010-12121212121212--------------------------------------------|
C|--------------------------------000-000------------------------------------|
G|--------------------------------000-000-5----------------------------------|
C|--------------------------------000-000------------------------------------|


Guitar 2: (You come in after G1 has done half of his bar)
d|---------------------------------------------------------------------------|
A|---------------------------------------------------------------------------|
F|--10-3---5------10-3---------121212121212121212-101010---------------------|
C|5-10-3-3-5-3--5-10-3-3-xxxx--xxxxxxxxxxxxxxxxxx-xxxxxx---------------------|
G|5-08-1-3-3-3--5-08-1-3-xxxx--101010101010101010-080808---------------------|
C|5------3---3--5------3-xxxx------------------------------------------------|

d|--------------------------1010101010101010-1212121212121212-14141414141414-|
A|--------------------------xxxxxxxxxxxxxxxx-xxxxxxxxxxxxxxxx-xxxxxxxxxxxxxx-|
F|121212121212121212-151515-7777777777777777-1010101010101010-12121212121212-|
C|xxxxxxxxxxxxxxxxxx-xxxxxx--------------------------------------------------|
G|101010101010101010-131313--------------------------------------------------|
C|---------------------------------------------------------------------------|

d|-----------------|
A|-----------------|
F|-----------------|
C|000-000----------|
G|000-000-5--------|
C|000-000----------|

Chorus:

Guitar 1:
d|---------------------------------------------------------------------------|
A|---------------------------------------------------------------------------|
F|1212121212121212-1515151515151515-1414141414141414-------------------------|
C|xxxxxxxxxxxxxxxx-xxxxxxxxxxxxxxxx-xxxxxxxxxxxxxxxx-------------------------|
G|1010101010101010-1313131313131313-1212121212121212-875-875-----------------|
C|---------------------------------------------------875-875-----------------|
PM						      --  --

d|---------------------------------------------------------------------------|
A|---------------------------------------------------------------------------|
F|1212121212121212-1515151515151515-1414141414141414--777-141414-------------|
C|xxxxxxxxxxxxxxxx-xxxxxxxxxxxxxxxx-xxxxxxxxxxxxxxxx--xxx-xxxxxx-------------|
G|1010101010101010-1313131313131313-1212121212121212--555-121212-------------|
C|---------------------------------------------------------------------------|

d|---------------------------------------------------------------------------|
A|---------------------------------------------------------------------------|
F|12r-15r--1414141414141414-------1212121212121212-1515151515151515----------|
C|xxr-xxr--xxxxxxxxxxxxxxxx-8--8--xxxxxxxxxxxxxxxx-xxxxxxxxxxxxxxxx----------|
G|10r-13r--1212121212121212-8--8--1010101010101010-1313131313131313----------|
C|--------------------------8--8---------------------------------------------|

d|---------------------------------------------------------------------------|
A|-----------------------------8-10-11-13b(14)-11-10-11-10-------------------|
F|1414141414141414-777-141414------------------------------11----11-12-------|
C|xxxxxxxxxxxxxxxx-xxx-xxxxxx---------------------------------12-------------|
G|1212121212121212-555-121212------------------------------------------------|
C|---------------------------------------------------------------------------|

d|---------------------------------------------------------------------------|
A|10-11-13b(14)-13p11h13-11-10b(11)-10---------------------------------------|
F|---------------------------------------------------------------------------|
C|---------------------------------------------------------------------------|
G|---------------------------------------------------------------------------|
C|---------------------------------------------------------------------------|


Guitar 2:
d|---------------------------------------------------------------------------|
A|---------------------------------------------------------------------------|
F|---------33333333-22222222-------------------33333333-22222222-------------|
C|55555555-33333333-22222222----------55555555-33333333-22222222-000-777-----|
G|55555555-11111111-00000000-875-875--55555555-11111111-00000000-000-777-----|
C|55555555-------------------875-875--55555555-------------------000-777-----|
PM			      --  --

d|---------------------------------------------------------------------------|
A|---------------------------------------------------------------------------|
F|----3r--22222222----------------33333333-22222222---------------3-3-2-2----|
C|5r--3r--22222222-8--8--55555555-33333333-22222222-000-777--5-55-3-3-2-2----|
G|5r--1r--00000000-8--8--55555555-11111111-00000000-000-777--5-55-1-1-0-0----|
C|5r---------------8--8--55555555-------------------000-777--5-55------------|

d|------------------------------------|
A|------------------------------------|
F|-------------3-3-2-2----------------|
C|--------5-55-3-3-2-2--0--0----------|
G|875-875-5-55-1-1-0-0--0--0----------|
C|875-875-5-55----------0--0----------|
PM --  --


************************************

| r   let ring
| /   slide up
| \   slide down
| h   hammer-on
| p   pull-off
| ~   vibrato
| +   harmonic
| x   Mute note
| b   Bend
| pb  Pre-bend
| br  Bend release
| pbr Pre-bend release
| brb Bend release bend

************************************
Tap to rate this tab
# A B C D E F G H I J K L M N O P Q R S T U V W X Y Z