Song name
# A B C D E F G H I J K L M N O P Q R S T U V W X Y Z

Misc Unsigned Bands - Lil Eddie - Save Those Words tab

CAPO 4

e--------------------------|
B-----3---3---3---2---3----|
G----2-2-2-2-0-0-0-0-0-0---|
D---0---0---2---2---3---3--|
A--------------------------|
E--------------------------|

e--------------------------|
B-----3---3---3---2---3----|
G----2-2-2-2-0-0-0-0-0-0---|
D---0---0---2---2---3---3--|
A--------------------------|
E--------------------------|

And that is the intro to that song :D
Tap to rate this tab
# A B C D E F G H I J K L M N O P Q R S T U V W X Y Z