Song name
# A B C D E F G H I J K L M N O P Q R S T U V W X Y Z

Misc Unsigned Bands - Game Changer - Taylor George tab

  Game Changer by Taylor George
  I wrote Game Changer when I was 13 years old.  It is an exercise written to cover many
different mechanical ideas on the fretboard in a short period of time - it is a great
practice piece. Check out Game Changer on Youtube at http://youtu.be/0pMHQRbjb6w.  I 
will upload the backing drum track in the next couple days.
----------------------------------------------------------------------------
Tabbed by: Taylor George
Email:johntgeorge37@hotmail.com

Tuning: Standard

e|--------------------------------|----------------------------------------|
B|--------------------------------|----------------------------------7-9---|
G|--------------------7-8-----7-9-|-----8-10-----9-11-----10-12------------|
D|-----7-8----7-9-----------------|----------------------------------------|
A|-7-9----7-9-----7-9-----7-9-----|-7-9------7-9------7-9-------7-9--------|
E|--------------------------------|----------------------------------------|
     Play 2 times

e|-----------------------------12-10-9-------------------------------------|
B|-----8-10-----9-11-----10-12---------12-10-9------10-9-------------------|
G|---------------------------------------------11-9------11-9-7--------9-7-|
D|--------------------------------------------------------------11-9-7-----|
A|-7-9------7-9------7-9---------------------------------------------------|
E|-------------------------------------------------------------------------|

e|-------------|----\--------------------------------|------------7-10-12-7|
B|-------------|------\------------------------------|----------7----------|
G|-------------|--------\----------------------------|--------7------------|
D|-11-9-7------|----------\--------------------------|------9--------------|
A|--------11-9-|------------\------------------------|-11-9----------------|
E|-------------|--------------\----------------------|---------------------|
                 Go back to the beginning and repeat

e|------------|--------*---------|-----------------------------------------|
B|-7----------|--------*---------|-----------------------------------------|
G|---7--------|--------*---------|-----------------------------------------|
D|-----9------|--------*---------|-----------------------------------------|
A|-------9-7--|--------*---------|--------------------5-6-7-8-9-10-11-12---|
E|------------|--------*---------|-5-6-7-8-9-10-11-12----------------------|
                Crazy Drum Break   L.H.    R.H.       L.H.    R.H.

e|-------------------------------------------------------------------------|
B|------------------------------------------10-13-17-13-10-----------------|
G|-12-8-5------------------------------------------------------------------|
D|--------12-8-5--------------------7-10-14----------------14-10-7---------|
A|---------------12-8-5----------------------------------------------------|
E|----------------------12-8-5-8-12--------------------------------12-8-5-8|
   t      t      t      t        t       t        t        t       t

e|-------------------------------------------------------------------------|
B|------------6-9-13-9-6---------------------------------------------------|
G|-------------------------------------------------------------------------|
D|----6-9-12-------------12-9-6--------------------------------------------|
A|------------------------------------------------------5-6-7-8-9-10-11-12-|
E|-12---------------------------12-8-5-6-7-8-9-10-11-12--------------------|
   t      t       t      t      t    L.H.    R.H.       L.H.    R.H.

e|-------------------------------------------------------------------------|
B|--------------------12-8-5--------12-8-5--------12-8-5-------------------|
G|---------------------------12-8-5--------12-8-5--------12-8-5------------|
D|-5-6-7-8-9-10-11-12-------------------------------------------12-8-5-----|
A|-------------------------------------------------------------------------|
E|-------------------------------------------------------------------------|
   L.H.    R.H.       t      t      t      t      t      t      t

e|-------------------------------------------------------------------------|
B|------------------------------------------10-13-17-13-10-----------------|
G|-------------------------------------------------------------------------|
D|--------12-8-5--------------------7-10-14----------------14-10-7---------|
A|-12-8-5--------12-8-5----------------------------------------------------|
E|----------------------12-8-5-8-12--------------------------------12-8-5--|
   t      t      t      t        t       t         t       t       t

e|---------------------------------------|-*-------------------------------|
B|--------------6-9-17-9-6---------------|-*-------------------------------|
G|---------------------------------------|-*------------------5-6-7-8------|
D|------7-10-14------------14-10-7-------|-*-------9-10-11-12--------------|
A|---------------------------------------|-*--------------------------10-11|
E|-8-12----------------------------12-8-5|-*5-6-7-8------------------------|
     t       t      t      t       t        L.H.   R.H.       L.H.    R.H
                                            Both hands over the fretboard
e|-------------------------------------------------------------------------|
B|----------------10-11-12-13----------------------------------------------|
G|----------------------------7-8-9-10-11-12-13-14-------------------------|
D|-------7-8-9-10------------------------------------------9-10-11-12------|
A|-12-13-------------------------------------------------------------------|
E|-------------------------------------------------5-6-7-8-----------------|
         L.H.      R.H.       L.H.     R.H.        L.H.    R.H.

e|-------------------------------------------------------------------------|
B|------------------------------10-11-12-13----------------------8-9-10-11-|
G|-5-6-7-8----------------------------------7-8-9-10-11-12-13-14-----------|
D|---------------------7-8-9-10--------------------------------------------|
A|---------10-11-12-13-----------------------------------------------------|
E|-------------------------------------------------------------------------|
   L.H.    R.H.        L.H.     R.H.        L.H.     R.H.        L.H.**
**RH start trem picking

e|-9-10-11-12------------10-11-12-13-------------15-12---------------------|
B|------------9-10-11-12-------------11-12-13-14-------12------------------|
G|--------------------------------------------------------12---------------|
D|-----------------------------------------------------------12------------|
A|--------------------------------------------------------------12-------14|
E|-----------------------------------------------------------------15-12---|
                                                 Sweep over fretboard

e|----------12-15-7-10----------------------10-*---------------------------|
B|-------14------------9------------------7----*---------------------------|
G|----14-----------------9--------------7------*-3-5-----3-6-----3-5-------|
D|-14----------------------9----------7--------*-----3-5-----3-6-----3-5---|
A|---------------------------9------7----------*---------------------------|
E|-----------------------------10-7------------*---------------------------|
                  Sweep under fretboard

e|-------------------------------------------------------------------------|
B|-------------------------------------------------------------------------|
G|-3-6-----3-5-------------------------------------------------------------|
D|-----3-6-----3-5-------------------------------------7-8-9-10-11-12-13-14|
A|-----------------3-5---------------4-5-6-7-8-9-10-11---------------------|
E|---------------------3-0-3-5-6-7-8---------------------------------------|
                             R.H.    L.H.    R.H.      L.H.     R.H.

e|-------------------------------------------------17|---------------------|
B|-------------------------14-15-16-17-18-19-20-21---|---------------------|
G|-10-11-12-13-14-15-16-17---------------------------|---------------------|
D|---------------------------------------------------|---------------------|
A|---------------------------------------------------|---------------------|
E|---------------------------------------------------|---------------------|
   L.H.        R.H.        L.H.         R.H.      R.H.

e|--------------------------------|----------------------------------------|
B|--------------------------------|----------------------------------7-9---|
G|--------------------7-8-----7-9-|-----8-10-----9-11-----10-12------------|
D|-----7-8----7-9-----------------|----------------------------------------|
A|-7-9----7-9-----7-9-----7-9-----|-7-9------7-9------7-9-------7-9--------|
E|--------------------------------|----------------------------------------|
     Play 2 times

e|-----------------------------12-10-9-------------------------------------|
B|-----8-10-----9-11-----10-12---------12-10-9------10-9-------------------|
G|---------------------------------------------11-9------11-9-7--------9-7-|
D|--------------------------------------------------------------11-9-7-----|
A|-7-9------7-9------7-9---------------------------------------------------|
E|-------------------------------------------------------------------------|


e|-------------|--------------------------|--------------------------------|
B|-------------|--------------------------|-------------------17-17--------|
G|-------------|9-8-7-6-5-4-3-2-----------|-------16-16-------------16-16--|
D|-11-9-7------|9-8-7-6-5-4-3-2-6-5-4-3-2-|-14-14-------12-12--------------|
A|--------11-9-|7-6-5-4-3-2-1-0-6-5-4-3-2-|--------------------------------|
E|-------------|----------------4-3-2-1-0-|--------------------------------|
                                            Tapped Harmonics

e|-------------------------------------------------------------------------|
B|-------------------------------------17-17-------------17-17-------------|
G|-------17-17-------------16-16-------------16-16----------------------16-|
D|-12-12-------------14-14-------12-12-------------12-12-------------14----|
A|-------------17-17-------------------------------------------17-17-------|
E|-------------------------------------------------------------------------|
   Tapped Harmonics - continued

e|----------------------------------------------|--------------------------|
B|----17-------17-------------17-------17-------|--------------------------|
G|-------16-------------16-------16-------------|--------------------------|
D|-12-------12-------14----12-------12----------|--------------------------|
A|----------------17----------------------17----|--------------------------|
E|-------------------------------------------12-|--------------------------|
   Tapped Harmonics - continued                   Shred over rhythm change

e|---------------------------------------------------------------------9-7-|
B|-------9-9-7----------9-9-----7--------9-9-7-----------------9-9-7-------|
G|-----7-------9------7-----9---7------7-------9-----7-9-----7-------9-----|
D|---9--------------9---------9-7----9-------------9-------9---------------|
A|-7--------------7----------------7-------------7-------7-----------------|
E|-------------------------------------------------------------------------|

e|----------------------------|--------------------------------------------|
B|-7-9-------9-9-7------------|--------------------------------------------|
G|---------7-------9------7-9-|----------10-10-----------------------------|
D|-------9--------------9-----|----10-12-------12-10----10-12-12-----------|
A|-----7--------------7-------|-12-------------------12--------------------|
E|----------------------------|--------------------------------------------|

e|-------------------------------------------------------------------------|
B|-----------------------------------------------------------9-9-7---------|
G|----------10-10------------------10----9----8---7--------7-------9-------|
D|----10-12-------12-10----10-12-0----11---10---9---8----9-----------------|
A|-12-------------------12-----------------------------7-------------------|
E|-------------------------------------------------------------------------|

e|------------------------------------------------|------------------------|
B|-------9-9-9-9-9-9-9-9--------------------------|------------------------|
G|-----7------------------------------------------|------------------------|
D|---9--------------------------------------------|------------------------|
A|-7----------------------------------------------|------------------------|
E|------------------------------------------------|------------------------|
         Rapid A.H. off of both sides of the pick

|------------------------------------9-7-----------------------------------|
B|----9-9-7-----------------9-9-7--------7-9-------9-9-7-------------------|
G|---7-------9-----7-9-----7-------9-------------7-------9-----7-9---------|
D|--9-------------9-------9--------------------9-------------9-------------|
A|-7-------------7-------7-------------------7-------------7---------------|
E|-------------------------------------------------------------------------|

e|--------------|-------------|--------------------------------------------|
B|-----------b8-|-------------|--------------------------------------------|
G|-----------b8-|-------------|-------------10-10--------------------------|
D|--------------|-------------|-------10-12-------12-10----10-12-12--------|
A|--------------|-------------|----12-------------------12-----------------|
E|-0-0--00-0----|----00405067-|--------------------------------------------|
 Pluck string     Pluck string
 Play measure 4x  PLay measure 4x

e|-------------------------------------------------------------------------|
B|-------------------------------------------------------------------------|
G|----------10-10------------------10----9----8---7------------------------|
D|----10-12-------12-10----10-12-0----11---10---9---8----------------------|
A|-12-------------------12-------------------------------------------------|
E|-------------------------------------------------------------------------|
Tap to rate this tab
 
# A B C D E F G H I J K L M N O P Q R S T U V W X Y Z