Song name
# A B C D E F G H I J K L M N O P Q R S T U V W X Y Z

Misc Unsigned Bands - Kermit The Frog - Rainbow Connection chords

Highlighted       Show chord diagrams
Rainbow Connection
Jim Henson/Kermit the Frog
Capo-Any fret as you wish. Best is No Capo. Whatever works for you.
     This is my first time. I hope you like it. It is my version. Lyrics are from:
http://www.lyricsmania.com/the_rainbow_connection_lyrics_kermit_the_frog.html
                G             C
Intro: E -------0-----0-------------0-------|
       B -------0-----0-------------0-------|
       G -------0-----0----------0----------|       2X
       D ---0------0-----0------------------|
       A ---------------------3-------------|    
       E -3---------------------------------|
Verse 1:    
G              C       Am          D
Why are there so many songs about rainbows
     G            C     Am     D
And what's on the other side
G            C            Am  D
Rainbows are visions but only illusions
    G             C       Am        D
And rainbows have nothing to hide

Chorus:
Am
So we've been told and some choose to believe it
Bm                                 (Move Bm down one fret)
I know they're wrong, wait and see
Am            D           G            D
Someday we'll find it the rainbow connection
C              D            G
The lovers the dreamers and me

       E -------0-----0-------------0-------|
       B -------0-----0-------------0-------|
       G -------0-----0----------0----------|       2X
       D ---0------0-----0------------------|
       A ---------------------3-------------|    
       E -3---------------------------------|

Verse 2:
G             C                Am           D
Who said that every wish would be heard and answered
G                  C       Am       D
When wished on the morning star
G                 C          Am      D
Somebody thought of that and someone believed it
G                  C       Am     D
And look what it's done so far

Chorus:
Am
What's so amazing that keeps us stargazing
Bm                                (Move Bm down one fret)
And what do we think we might see
Am            D           G       C
Someday we'll find it the rainbow connection
Am              D           G
The lovers the dreamers and me
Bridge:
G         D         C
All of us under its spell,
C                 Am       D
We know that it's probably magic ............

Verse 3:
G             C           Am                  D 
Have you been half asleep And have you heard voices
G               C          Am     D
I've heard them calling my name
G              C             Am               D
Is this the sweet sound that calls the young sailors
G                  C           Am      D
The voice might be one and the same

Chorus:
Am
I've heard it too many times to ignore it
Bm                                    (Move Bm down one fret)
It's something that I'm s'posed to be 
Am            D           G            D
Someday we'll find it the rainbow connection
Am             D            G
The lovers the dreamers and me 
 
      Outro: (Gradually get softer)
       
       E -------0-----0-------------0-------|
       B -------0-----0-------------0-------|
       G -------0-----0----------0----------|       2X
       D ---0------0-----0------------------|
       A ---------------------3-------------|   
       E -3---------------------------------|
            G (soft)
Tap to rate this tab
# A B C D E F G H I J K L M N O P Q R S T U V W X Y Z