Song name
# A B C D E F G H I J K L M N O P Q R S T U V W X Y Z

Misc Unsigned Bands - S3rl - Pika Girl tab

(/) Slide Up  (\) Slide Down  (h) Hammer On  (p) Pull Off  (b) Bend (r) Release (~) Vibrato


E|--------------------------------------------------------|
B|--------------------------------------------------------|
G|-----------------1~----1--------------------------------|
D|--------------------------4--3-----3--4-----------------|
A|--1-----1-----4-----4-----------4--------3--3--3--4~-3--|
E|-----1-----1--------------------------------------------|



E|--------------------------------------------------------|
B|--------------------------------------------------------|
G|-----------------1~----1-----------------1--1--1-----1--|
D|--------------------------4--3-----3--4-----------3~----|
A|--1-----1-----4-----4-----------4-----------------------|
E|-----1-----1--------------------------------------------|



E|--------------------------------------------------------|
B|--------------------------------------------------------|
G|--3--3--1-----------------------------------------------|
D|-----------4--3--1~----4--3--3--1-----------------------|
A|--------------------4--------------4--3--3--3--4~-3-----|
E|--------------------------------------------------------|



E|--------------------------------------------------------|
B|--------------------------------------------------------|
G|-----------------1~----1-----------------1--1--1-----1--|
D|--------------------------4--3-----3--4-----------3-----|   (repeat)
A|--1-----1-----4-----4-----------4-----------------------|
E|-----1-----1--------------------------------------------|
Tap to rate this tab
 
# A B C D E F G H I J K L M N O P Q R S T U V W X Y Z