Song name
# A B C D E F G H I J K L M N O P Q R S T U V W X Y Z

Misc Unsigned Bands - This Side Down - Liesbroken Hearts And The Kid That Looks Like Me tab

NEW ARTIST
intro


e--------------------------------------------|
b--------------------------------------------|
g----66-77-----5----66-77-99-----------------|
D-77-66-77-22-55-77-66-77-99-9999------------|
A-77-44-55-22-53-77-44-55-77-9999------------|
E-55-------00-3--55----------7777------------|

Verse


e----------------------------------------------------------------|
b-----------------66-66-66-66-6-6--------------------------------|
g-77-77-77-77-7-7-66-66-66-66-6-6-99-99-99-99-9-9-999999999------|
D-77-77-77-77-7-7-44-44-44-44-4-4-99-99-99-99-9-9-999999999------|
A-55-55-55-55-5-7-44-44-44-44-4-4-77-77-77-77-7-7-999999999------|
E-55-55-55-55-5-5-----------------77-77-77-77-7-7-999999999------|

 Chorus
the first time pause after every group of 5
but the second and thrid time dont pause
e------------------------------------------------------------|
b------------------------------------------------------------|
g------------------------------------------------------------|
D-99999---77777---55555---33333------------------------------|
A-99999---77777---55555---33333------------------------------|
E-99999---77777---55555---33333------------------------------|

Outro
1 times and do it fast

e------------------------------------------------|
b------------------------------------------------|
g----66-77-----5----66-77-99---------------------|
D-77-66-77-22-55-77-66-77-99-9999/14-------------|
A-77-44-55-22-53-77-44-55-77-9999/14-------------|
E-55-------00-3--55----------7777/12-------------|
Ending
e-----------------0/21---------------|
b-----------------0/21---------------|
g-----------------0/21---------------|
D-7---5---3---0---0/21---------------|
A-7---5---3---0---0/21---------------|
E-7---5---3---0---0/21---------------|

If you have any questions about T.S.D. or suggestions please email me at
FALLOUTBOY_MEETS_RUFIO@YAHOO.COM
SUGGESTIONS AND ADVISE IS ALWAYS WELCOMED
Intro 2X
Verse 2X
Chorus 3X
Verse 2X
Chorus 3X
Outro 1X
Ending1X
Tap to rate this tab
# A B C D E F G H I J K L M N O P Q R S T U V W X Y Z