Song name
# A B C D E F G H I J K L M N O P Q R S T U V W X Y Z

Misc - Amazing Grace tab

6---------------------------------------------------------------------------|
5---------------------------------------------------------------------------|
4--0---------------2-0---0-------------------------------2-----2-0-0--------|
3-----0-------2-0-----------0--------2----------------0-----0--------0------|
2--------0-0--------------------0-0-----3----0-3---0-------------------0-0--|
1---------------------------------------------------------------------------|

6-------------------------------------------------------------------------|
5-------------------------------------------------------------------------|
4-------------------------------------------------------------------------|
3-------------------------------------------------------------------------|
2--2-0--------------------------------------------------------------------|
1-------------------------------------------------------------------------|
Tap to rate this tab
# A B C D E F G H I J K L M N O P Q R S T U V W X Y Z