Song name
# A B C D E F G H I J K L M N O P Q R S T U V W X Y Z

Misc - 12 Bar Blues tab

 This blues is easy to play, and I think it sounds cool. Have fun!

e:-------------------------------------------------------------|
b:-------------------------------------------------------------|
g:-------5-7-----------------5-7-----------------5-7-----------|
d:-------5-7-----------------5-7-----------------5-7-----------|
a:--0-0-------0-0--567--0-0-------0-0--567--0-0-------0-0--567-|
e:-------------------------------------------------------------|


e:-------------------------------------------------------------|
b:---------------------------5-7-----------------5-7-----------|
g:-------5-7-----------------5-7-----------------5-7-----------|
d:-------5-7------------0-0-------0-0--567--0-0-------0-0--765-|
a:--0-0-------0-0--765-----------------------------------------|
e:-------------------------------------------------------------|


e:-------------------------------------------------------------|
b:-------------------------------------------------------------|
g:-------5-7-----------------5-7-----------------7-9-----------|
d:-------5-7-----------------5-7-----------------7-9-----------|
a:--0-0-------0-0--567--0-0-------0-0--765---------------------|
e:------------------------------------------0-0-------0-0--567-|


e:-----------------------------------------|
b:-------5-7-------------------------------|
g:-------5-7-----------------5-7-----------|
d:--0-0-------0-0--765-------5-7-----------|
a:----------------------0-0-------0-0--567-|
e:-----------------------------------------|

now you can play this:
e:----------------------------------|
b:----------------------------------|
g:-------7-7--6-6--5-5--------------|
d:-------7-7--6-6--5-5--7-7--5-7~~~-|
a:--0-0-----------------7-7--5-7~~~-|
e:----------------------------------|


or you can play a turnaround like this, and return to beginning:
e:----------------------------------------------------|
b:----------------------------------------------------|
g:---------2-----2-----2------------------------------|
d:-------5---5-4---4-3---3-2-0-1-2~~~~~~~~~~~~~~~~~~~-|
a:--0-0-----------------------------------------------|
e:----------------------------------0-0--0-0--0-0--0--|


Hope you like it!
Enjoy it! Please rate it! Comments are welcome!
Tap to rate this tab
# A B C D E F G H I J K L M N O P Q R S T U V W X Y Z