Song name
# A B C D E F G H I J K L M N O P Q R S T U V W X Y Z

Misc - Weird tab

-------------------------------------------------------------------------------
			     Misc songs
-------------------------------------------------------------------------------
Tabbed by:babalouie


Tuning:normal
If you play it really fast it sounds cool!! Go easy it's my first tab!

e|-----0-----1----3---1---------------------------------------------------------------|
B|----2-----2----2---2----------------------------------------------------------------|
G|---2-----2----2---2-----------------------------------------------------------------|
D|--0-----0----0---0------------------------------------------------------------------|
A|------------------------------------------------------------------------------------|
E|------------------------------------------------------------------------------------|
Tap to rate this tab
 
# A B C D E F G H I J K L M N O P Q R S T U V W X Y Z