Song name
# A B C D E F G H I J K L M N O P Q R S T U V W X Y Z

Misc - Happy Birthday tab

there are plenty of bass line simple versions of happy birthday, but i was
looking for an unnecessarily complicated version in triplets that had the 
bass lines in between the notes. i couldn't find one, so i made one. hope you like it. 

tuning - standard

 (let notes ring out)

 |-3-3-3---------------------|
 |-3-3-3-2-------------------|
 |-0-0-0-2-------------------|
 |-0-0-0-2-------5-----5-----|
 |-2-2-2-0-----3---3-2---2---|
 |-3-3-3----3----------------|
|3|-----       -----------  (triplets)


 |-3-3-3---------------------|
 |-3-3-3-2-------------------|
 |-0-0-0-2---------2-----2---|
 |-0-0-0-2-------4-----3-----|
 |-2-2-2-0-----5-----3-------|
 |-3-3-3----3----------------|
|3|-----       -----------     


 |-3-3-3-----------------------------------------|
 |-3-3-3-----------------------------------------|
 |-0-0-0-----------------------------------------|
 |-0-0-0---10-------------------------5-7---(7)--|
 |-2-2-2-7----7---7---------------567------------|
 |-3-3-3--------8---8-7-8-7-5-7-5----------------|
|3|---------------------------------- 
                                  (blues... i 
                                  don't know why)
                               
 |-------------------------------|
 |-------------------------------|
 |-------------------------------|
 |---10-----10-------------------|
 |-8----8-7----------------------|
 |-------------8-10-8-10-8~~-----|
|3|---------------------

all that as a result of boredom. hope you like it.    
Tap to rate this tab
# A B C D E F G H I J K L M N O P Q R S T U V W X Y Z