Song name
# A B C D E F G H I J K L M N O P Q R S T U V W X Y Z

Misc - Malaguena tab

HEY THIS IS MY FIRST TAB SO DON' EXPECT IT TO BE 110% CORRECT BUT IT IS 100% 
give you the link for the vid to see how it is....
http://www.youtube.com/watch?v=1PtQkyMbDbc...comment n rate


                                  MALAGUENA

e|-----------|--------------|------------|---------------|------------|--------------|
h|-0--1---3--|-3----1----0--|-1-------0--|-3p1----0------|-0----------|--------------|
g|-1---------|--------------|-----2------|------------2--|----2----0--|-2----0-------|
d|-0---------|--------------|------------|---------------|------------|-----------3--|
a|-----------|--------------|-0----------|---0-----------|------------|--------------|
E|-0---------|-0------------|------------|---------------|-3----------|-1------------|


e|------------0------|-------0-------|
g|---------0---------|----0----------|
d|------1------------|-1-------------| x2
a|----------------2--|------------2--|
E|-0-----------------|---------------|


e|---0---0---0-|---0---0---0-|---0---0---0-|---0---0---0-|
h|---------0---|---------0---|-----1---0---|-------------|
g|-----1-------|-----1-------|-2-----------|-2---0-------| x2
d|-2-----------|-2-----------|-------------|---------3---|
a|-------------|-------------|-------------|-------------|
E|-------------|-------------|-------------|-------------|


e|---0---0---0-|---0-----0-----0--|----0------0------0--|---0-----0-----0---|
h|---------0---|3-----1-----0-----|-1-------------0-----|1-----0------------|
g|-----1-------|------------------|-------2-------------|------------2------|
d|-2-----------|------------------|---------------------|-------------------|
a|-------------|------------------|---------------------|-------------------|
E|-------------|------------------|---------------------|-------------------|

e|----0-------0-----0-|----0-------0-------0-|---------------------0--|
h|-0------------------|----------------------|----------0----------0--|
g|--------2------0----|-2------0-------------|------1--------------1--|
d|--------------------|-----------------3----|-2-------------------2--|
a|--------------------|----------------------|---------------------2--|
E|--------------------|----------------------|---------------------0--|

e|-0---------|-0---0----0-----|-0----0---------|-1----0-------|
h|-0---------|-0--------------|----------3-----|----------3---|
g|-1---------|-1--------------|----------------|--------------|
d|-2---------|----------------|----------------|--------------|
a|-2---------|----------------|----------------|--------------|
E|-0---------|-0--------------|-0--------------|-0------------|


e|---------------|----------------|------------------|--------------|
h|-1-------------|-1---1---1------|-1----1----0------|-3---1---0----|
g|----------0----|----------------|------------------|--------------|
d|------2--------|----------------|-2----------------|--------------|
a|-3-------------|-3--------------|------------------|-3------------|
E|---------------|----------------|------------------|--------------|


e|---------------|----------------|------0---------|-1----0-------|
h|---------------|------0----1----|-3---------3----|-----------3--|
g|-2-------------|-2--------------|----------------|--------------|
d|----------3----|----------------|-3--------------|--------------|
a|------3--------|----------------|----------------|--------------|
E|-1-------------|-1--------------|----------------|-3------------|


e|--------------|---------0----|-1----3----1--|-1---0---1---3p1--|
h|-1------------|-1---3--------|--------------|-0----------------|
g|---------0----|--------------|-0------------|-2----------------|
d|-----2--------|--------------|--------------|-0----------------|
a|-3------------|-3------------|--------------|------------------|
E|--------------|--------------|--------------|------------------|


e|-0--|-----0-----0------0---|----0------0------0---|---0----0-----0-|---0-----0----0-|
h|-0--|-----0-----0------0---|----0------0------0---|---1----1-----1-|---1-----0----0-|
g|-1--|----------------------|----------------------|----------------|----------------|
d|-2--|----------------------|----------------------|----------------|----------------|
a|-2--|---------------2------|---------------2------|-0----3----2----|-0--------------|
E|-0--|-0------4-------------|-0------4-------------|----------------|------3----1----|


e|----0-----0-----0--|---0-----0------0--|---0-----0------0--|---0------0------0--|
h|----0-----0-----0--|---0-----0------0--|---1-----1------1--|---1------1------1--|
g|-------------------|-------------------|-------------------|--------------------|
d|-------------------|-------------------|-------------------|-0-----2------3-----|
a|-------------2-----|-------------2-----|-0----2------3-----|--------------------|
E|-0-----4-----------|-0----4------------|-------------------|--------------------|


e|--0-------0------0--|--0------0------0--|--0------0------0--|--0------0------0-|
h|----0-------0------0|----0------0------0|----1------5------3|----1------0-----0|
g|-------1--------4---|-------1------4-----2------5------4------2-----0----------|
d|-2--------------------2-----------------|-------------------|--------------3---|
a|--------------------|-------------------|-------------------|------------------|
E|----------------------------------------|-------------------|------------------|
X2

e|--------|-0---0|-0---0----|-1--0----|-----------|-0--------|----------|---------|
h|-------0|-0----|-1------3-|-------1-|-3---3---1-|-0--3---0-|-1---1--0-|-3--1----|
g|----1---|-1----|-2--------|---------|-0---------|-0--------|-2--------|-2-----2-|
d|-2------|-2----|----------|---------|-0---------|----------|-3--------|-3-------|
a|--------|-2----|-0--------|-0-------|-----------|----------|----------|---------|
E|--------|-0----|----------|---------|-3---------|----------|-1--------|---------|


e|-0--------|----0--|-5--5--4|-3--1--0--|-3--3--2-|-1--0----|-1--1--0--|---------|
h|-0--------|-0-----|--------|----------|---------|-------3-|----------|-3--1--3-|
g|-1--1--2--|-1-----|--------|----------|---------|---------|----------|---------|
d|-2--------|-2-----|--------|----------|---------|---------|----------|---------|
a|-2--------|-------|-0------|-0--------|---------|---------|----------|---------|
E|-0--------|-0-----|--------|----------|-3-------|-3-------|-1--------|-1-------|


e|-0--0----|---------|---------|----------|----------|--------|--------|---------|
h|-------4-|-3--1--0-|-1--1--1-|--1--0----|-0--0---0-|-0------|---0--1-|-1--3--4-|
g|---------|---------|---------|--------2-|----------|---2--0-|-2------|---------|
d|---------|---------|---------|----------|----------|--------|--------|---------|
a|---------|---------|-0-------|--0-------|----------|--------|--------|---------|
E|-0-------|-0-------|---------|----------|-3--------|-3------|-1------|---------|

e|-0----0-0-0-0-|-0-0-0-0-|
h|------0-0-0-0-|-0-0-0-1-|
g|------1-1-1-1-|-1-1-1-1-|
d|------2-2-2-2-|-2-2-2-2-|
a|--------------|---------|
E|-0------------|---------|


e|---0---0---0-|---0---0---0-|---0---0---0-|---0---0---0-|
h|---------0---|---------0---|-----1---0---|-------------|x2
g|-----1-------|-----1-------|-2-----------|-2---0-------|
d|-2-----------|-2-----------|-------------|---------3---|
a|-------------|-------------|-------------|-------------|
E|-------------|-------------|-------------|-------------|

e|---0---0---0-|---0-----0-----0--|----0------0------0--|---0-----0-----0---|
h|---------0---|3-----1-----0-----|-1-------------0-----|1-----0------------|
g|-----1-------|------------------|-------2-------------|------------2------|
d|-2-----------|------------------|---------------------|-------------------|
a|-------------|------------------|---------------------|-------------------|
E|-------------|------------------|---------------------|-------------------|


e|----0-------0-----0-|----0-------0-------0-|
h|-0------------------|----------------------|
g|--------2------0----|-2------0-------------|
d|--------------------|-----------------3----|
a|--------------------|----------------------|
E|--------------------|----------------------|

e|---0-0---0-0---0-0|---0-0---0-0---0-0|---0-0---0-0---0-0-|---0-0---0-0---0-0|
h|-------------0----|-------------0----|-------1-----0-----|------------------|
g|-------1----------|-------1----------|-2-----------------|-2-----0----------|
d|-2----------------|-2----------------|-------------------|-------------3----|
a|------------------|------------------|-------------------|------------------|
E|------------------|------------------|-------------------|------------------|

e|---0-0---0-0---0-0|---0-0---0-0---0-0|---0-0---0-0---0-0-|---0-0---0-0---0-0|
h|-------------0----|-------------0----|-------1-----0-----|------------------|
g|-------1----------|-------1----------|-2-----------------|-2-----0----------|
d|-2----------------|-2----------------|-------------------|-------------3----|
a|------------------|------------------|-------------------|------------------|
E|------------------|------------------|-------------------|------------------|

e|---0-0---0-0---0-0|--0-0---0-0---0-0-|---0-0---0-0---0-0---|--0-0---0-0---0-0----|
h|-------------0----|3-----1-----0-----|-1-----------0-------|-1----0--------------|
g|-------1----------|------------------|-------2-------------|------------2--------|
d|-2----------------|------------------|---------------------|---------------------|
a|------------------|------------------|---------------------|---------------------|
E|------------------|------------------|---------------------|---------------------|


e|----0-0-----0-0----0-0-|---0-0-----0-0----0-0-|--0--|
h|-0---------------------|----------------------|--0--|
g|---------2------0------|-2------0-------------|--1--|
d|-----------------------|---------------3------|--2--|
a|-----------------------|----------------------|--2--|
E|-----------------------|----------------------|--0--|
Tap to rate this tab
 
# A B C D E F G H I J K L M N O P Q R S T U V W X Y Z