Song name
# A B C D E F G H I J K L M N O P Q R S T U V W X Y Z

Misc - Heart And Soul tab

-------------------------------------------------------------------------------Heart And Soul

-------------------------------------------------------------------------------
Tabbed by:Ardie12
Email:ardie12@hotmail.com   this is my first tab so take it easy

Tuning:normal

e|-------------------------------------------------------------------------|
B|---------------------------------------------------------------------0---|
G|-------------------------------------------------------------------------|
D|--------1010------77---------33------55-----------------------------x2---|
A|--------1010------77---------33------55------------------------------0---|
E|-----88-8-8----55-55----1(1)-11--33--33----------------------------------|
 guitar II over I or just after
e|-------------------------------------------------------------------------|
B|-------------------------------------------------------------------------|
G|-------------------------------0-----20----------------------------------|
D|---------------0-222-2-0---023----------320------------------------------|
A|---333-32-0-23----------3---------3----------3--2-0----------------------| 
E|-----------------------------------------------------3--1--3-------------|

e|-------------------------------------------------------------------------|
B|---------------------------------------------------------------------0---|
G|-------------------------------------------------------------------------|
D|--------1010------77---------33------55-----------------------------x2---|
A|--------1010------77---------33------55------------------------------0---|
E|-----88-8-8----55-55----1(1)-11--33--33----------------------------------|


Tap to rate this tab
# A B C D E F G H I J K L M N O P Q R S T U V W X Y Z