Song name
# A B C D E F G H I J K L M N O P Q R S T U V W X Y Z

Misc - Silent Night tab

-------------------------------------------------------------------------------
			     Silent Night - Misc
-----------------------------------------------------------------------------
So this is my first tab... Please rate it =]
PS. Strictly for novices.

Tabbed by: Stardaze
Email: cinnaxbelle@hotmail.com


e|---------------------------------------|
B|---------------------------------------|
G|---------------------------------------|
D|-0-2-0----0-2-0----7-7-4-5-5-0---------|
A|-------2--------2----------------------|
E|---------------------------------------|

e|-----------------------------------------|
B|-----------------------------------------|
G|-----------------------------------------|
D|-2-2-5-4-2--0-2-0----2-2-5-4-2--0-2-0----|
A|------------------2-------------------2--|
E|-----------------------------------------|

e|----------------------------------------|
B|----------------------------------------|
G|----------------------------------------|
D|-7-7-10-9-7-5-9--5-0---0----------------|
A|---------------------2---3-0------------|
E|-----------------------------3----------|
Tap to rate this tab
 
# A B C D E F G H I J K L M N O P Q R S T U V W X Y Z