Song name
# A B C D E F G H I J K L M N O P Q R S T U V W X Y Z

Misc - Romance tab

---------------------------------------------------------------------------
                             Romance
---------------------------------------------------------------------------

Tuning:EADGBe

e|--0---0---0---0-------------------------------0---5---5---5---5---3---1----|
B|------------------3---1---1---0-----------1--------------------------------|
G|----------------------------------2---2------------------------------------|
D|---------------------------------------------------------------------------|
A|--0-----------0-----------0-----------0------------0----------0------------|
E|---------------------------------------------------------------------------|

e|--1---0-----------0---1---0---1---0---4---1---0---0------------------------|
B|----------3---3---------------------------------------3---1---1---0--------|
G|----------------------------------------------------------------------2----|
D|--0-----------0------------------------------------------------------------|
A|--------------------------------------------------0-----------0------------|
E|--------------------------0-----------0------------------------------------|

e|---------------------------------------------------------------------------|
B|--0---0---0---0---1---0----------------------------------------------------|
G|--------------------------2------------------------------------------------|
D|---------------------------------------------------------------------------|
A|--------------------------0------------------------------------------------|
E|--0-----------0------------------------------------------------------------|

Part 2:
e|------------------------------------------------------2---2---2---2--------|
B|------2---2---2---2---0----------------------------------------------------|
G|--------------------------2---2---1---1---1---0---1------------------------|
D|------------------------------------------------------0-----------0--------|
A|------0-----------0-----------0-----------0--------------------------------|
E|--0------------------------------------------------------------------------|

e|--4---2---2---0---0---0---2---4---5---5---5---5---4---3---2---2---2---2----|
B|---------------------------------------------------------------------------|
G|---------------------------------------------------------------------------|
D|----------0-----------0-----------------------------------0-----------0----|
A|----------------------------------0-----------0----------------------------|
E|---------------------------------------------------------------------------|

e|--0------------------------------------------------------------------------|
B|------3---2---2---2---2---3---0--------------------------------------------|
G|----------------------------------2----------------------------------------|
D|---------------------------------------------------------------------------|
A|----------------------------------0----------------------------------------|
E|----------0-----------0----------------------------------------------------|
Tap to rate this tab
# A B C D E F G H I J K L M N O P Q R S T U V W X Y Z