Song name
# A B C D E F G H I J K L M N O P Q R S T U V W X Y Z

Misery Signals - Mirrors tab

Band: Misery Signals
Song: Mirrors
Guitar Part: Both
Tuning: Drop C (CGCFAD)
Tabbed By: Geoffrey Thomas O'Phee - www.myspace.com/thoric
-----------------------------------------------------------

I know that some of this may be wrong but please appreciate this tab
I took the time to work it all out by ear AND tab it out for all of you.
Me and the other guitarist in my band can play this through, so the guitar parts sound correct.
They may not be the right guitar parts for the guitarist but they still work.
(Times may be slightly out)

[The way i play this may have changed since i wrote the tab.]

Thank you.
________________________________________________________________________________

GUITAR 1
Into [00:00]
|---------------------------------------------------------------------|
|---------------------------------------------------------------------|
|-12/14---14/15---12/14-------10-10-------5-5-------15-15-------14-14-|
|------------------------0000-------0000-------0000--------0000-------|
|-10/12---12/13---10/12--0000-8--8--0000--3-3--0000-13-13--0000-12-12-|
|-------0-------0--------0000-------0000-------0000--------0000-------|

GUITAR 2
|-------------------------------------------------------------------|
|-------------------------------------------------------------------|
|-12/14---14/15---12/14-------10-10-------5-5-------3-3---------2-2-|
|------------------------0000-------0000-------0000--------0000-0-0-|
|-10/12---12/13---10/12--0000-8--8--0000--3-3--0000-1-1----0000-0-0-|
|-------0-------0--------0000-------0000-------0000--------0000-----|
________________________________________________________________________________

GUITAR 1
Bridge [00:05]
|-----------------------------------------------|  |------------------|
|--------------------------------------6|||||||||  |--10-10-10-10-----|
|--------------------------------------9|||||||||  |--13-13-13-13-----|
|-000-----------------------------000-----------|  |------------------|
|-000-(other guitar does triplet)-000-----------|  |------------------|
|-000-----------------------------000-----------|  |------------------|

GUITAR 2
|------------------------------------------------0-|
|------------------------------------------------3-|
|------------------------------------------------2-|
|------------------------------000---------------0-|
|--(other guitar does triplet)-000--(and again)--0-|
|------------------------------000---------------0-|
________________________________________________________________________________

Fill (Goes under weird chord that other guitar plays)
[THIS PART IS FOR GUITAR 2]
|-------|
|-------|
|-------|
|-0-0-0-|
|-0-0-0-|
|-0-0-0-|
________________________________________________________________________________

GUITAR 1
Verse 1 (Frame 1) [00:10]
|------------------------------------------------------|
|-------66-----6-6-6-----------------------------------|
|-------99-----9-9-9-----------------------------------|
|-0-0-0----0-0-------000-5h6-6-6-6-6-6/9-9-9-9-9\5-5-5-|
|-0-0-0----0-0-------000-5h6-6-6-6-6-6/9-9-9-9-9\5-5-5-|
|-0-0-0----0-0-------000-5h6-6-6-6-6-6/9-9-9-9-9\5-5-5-|

Verse 1 (Frame 2) [00:16]
|----------------------------------------------------|
|-------66-----6-6-6---------------------------------|
|-------99-----9-9-9---------------------------------|
|-0-0-0----0-0-------000-5h6-5p0-000-5h9-8p0-000-5h6-|
|-0-0-0----0-0-------000-5h6-5p0-000-5h9-8p0-000-5h6-|
|-0-0-0----0-0-------000-5h6-5p0-000-5h9-8p0-000-5h6-|

Verse 1 (Frame 3) [00:21]
|-----------------------------------------------------|
|-------66-----6-6-6----------------------------------|
|-------99-----9-9-9----------------------------------|
|-0-0-0----0-0-------000-3h4-3-3-3h4-4-4-4-4\1-1-1-0-0|
|-0-0-0----0-0-------000-3h4-3-3-3h4-4-4-4-4\1-1-1-0-0|
|-0-0-0----0-0-------000-3h4-3-3-3h4-4-4-4-4\1-1-1-0-0|

Verse 1 (Frame 4) [00:27]       vv X2 vv
|---------------------|---------------------------------|
|-------66-----6-6-6--|---------------------------------|
|-------99-----9-9-9--|---------------------------------|
|-0-0-0----0-0--------|-000-5h6-5p0-000-5h9-8p0-000-5h6-|
|-0-0-0----0-0--------|-000-5h6-5p0-000-5h9-8p0-000-5h6-|
|-0-0-0----0-0--------|-000-5h6-5p0-000-5h9-8p0-000-5h6-|

-------

GUITAR 2
Verse 1 (Frame 1) [00:10]
|--------------------------------------------------------------|
|--------------------------------------------------------------|
|--------10-10-----10101010------------------------------------|
|-0-0-0--------0-0-----------000-5h6-6-6-6-6-6/9-9-9-9-9\5-5-5-|
|-0-0-0--8--8--0-0-8-8-8-8---000-5h6-6-6-6-6-6/9-9-9-9-9\5-5-5-|
|-0-0-0--------0-0-----------000-5h6-6-6-6-6-6/9-9-9-9-9\5-5-5-|

Verse 1 (Frame 2) [00:16]
|------------------------------------------------------------|
|------------------------------------------------------------|
|--------10-10-----10101010----------------------------------|
|-0-0-0--------0-0-----------000-5h6-5p0-000-5h9-8p0-000-5h6-|
|-0-0-0--8--8--0-0-8-8-8-8---000-5h6-5p0-000-5h9-8p0-000-5h6-|
|-0-0-0--------0-0-----------000-5h6-5p0-000-5h9-8p0-000-5h6-|

Verse 1 (Frame 3) [00:21]
|------------------------------------------------------------|
|------------------------------------------------------------|
|-------10-10-----10101010-----------------------------------|
|-0-0-0-------0-0-----------000-3h4-3-3-3h4-4-4-4-4\1-1-1-0-0|
|-0-0-0-8--8--0-0-8-8-8-8---000-3h4-3-3-3h4-4-4-4-4\1-1-1-0-0|
|-0-0-0-------0-0-----------000-3h4-3-3-3h4-4-4-4-4\1-1-1-0-0|

Verse 1 (Frame 4) [00:27]       vv X2 vv
|--------------------------|---------------------------------|
|--------------------------|---------------------------------|
|-------10-10-----10101010-|---------------------------------|
|-0-0-0-------0-0----------|-000-5h6-5p0-000-5h9-8p0-000-5h6-|
|-0-0-0-8--8--0-0-8-8-8-8--|-000-5h6-5p0-000-5h9-8p0-000-5h6-|
|-0-0-0-------0-0----------|-000-5h6-5p0-000-5h9-8p0-000-5h6-|
________________________________________________________________________________

GUITAR 1
Bridge [00:35] {"Your submissive hands"}
|----------------|
|-10-10-10-10-10-|
|-13-13-13-13-13-|
|----------------|
|----------------|
|----------------|

--

GUITAR 2
|-------------|
|-------------|
|-------------|
|-0-0-0-0-0-0-|
|-0-0-0-0-0-0-|
|-0-0-0-0-0-0-|
________________________________________________________________________________

GUITAR 1
Verse 2 [00:40]
vv Half pick, half strum this chord|   vv Find out strumming pattern for this chord
|-8-|                                |----|
|-6-|                                |----|
|-5-|                                |-10-|
|-7-|                                |-10-|
|-5-|                                |-8--|
|---|                                |-8--| Both of them X2

GUITAR 2
Verse 2 [00:40]
|-------------------------------------------------------|
|-------------------------------------------------------|
|-----10-9-----10-9-9-10-9-----9-10------9-10-9PH^1F.R9-|
|---7--------7---------------7---------7----------------|
|-------------------------------------------------------|
|-0--------0---------------0---------0------------------|

(work out strumming pattern)
|----|
|----|
|-10-|
|-10-|
|-8--|
|-8--|

________________________________________________________________________________

GUITAR 1
Fill 1 [01:03] {"Defying all reason"}
|-------------12h13-------|
|-------13p10-------13/15-|
|-10h12-------------------|
|-------------------------|
|-------------------------|
|-------------------------|
________________________________________________________________________________

GUITAR 1
Verse 3 (Frame 1) [01:07]
|-------------------------------------------------------------|
|-15-15-15-15-15-15-15-15-15-15-15-15-------------------------|
|-14-14-14-14-14-14-14-14-14-14-14-14-10p9--------------------|
|-12-12-12-12-12-12-12-12-12-12-12-12-------12p10-------------|
|-12-12-12-12-12-12-12-12-12-12-12-12-------------12/13-15----|
|-12-12-12-12-12-12-12-12-12-12-12-12----------------------15-|

|-----------------------------------------------------12h13p12----12h13p12----12h13p12------------12-13-13h15p13------|
|--------------------------------------------------------------13----------13---------13--------13--------------13/15-|
|---------------------------------------------------------------------------------------14-12-14----------------------|
|-14h15-17-14h15-17-14h15-17-14h15-17-14h15-17-14h15------------------------------------------------------------------|
|---------------------------------------------------------------------------------------------------------------------|
|---------------------------------------------------------------------------------------------------------------------|

Verse 3 (Frame 2) [01:15]
|-------------------------------------------------------------|
|-15-15-15-15-15-15-15-15-15-15-15-15-------------------------|
|-14-14-14-14-14-14-14-14-14-14-14-14-10p9--------------------|
|-12-12-12-12-12-12-12-12-12-12-12-12-------12p10-------------|
|-12-12-12-12-12-12-12-12-12-12-12-12-------------12/13-15----|
|-12-12-12-12-12-12-12-12-12-12-12-12----------------------15-|

|------------------------------------------------------|-------------------|
|------------------------------------------------------|-------------------|
|------------------------------------------------------|-12/14-14/15-12/14-|
|-14h15-17-14h15-17-14h15-17-14h15-17-14h15-17-14h15---|-------------------|
|------------------------------------------------------|-10/12-12/13-10/12-|
|------------------------------------------------------|-------------------|

(Other guitar plays last bit of last riff for the fill here)

Verse 3 (End Frame 1) [01:25]
|---------------------------------------------------|
|---------------------------------------------------|
|------10------5------15------14--12/14-14/15-12/14-|
|-0000----0000---0000----0000-----------------------|
|-0000-8--0000-3-0000-13-0000-12--10/12-12/13-10/12-|
|-0000----0000---0000----0000-----------------------|

Verse 3 (End Frame 2) [01:29]
|------------------------------------------------------------------------1-|
|------------------------------------------------------------------------3-|
|------10------5------15------14-----------------------------------------2-|
|-0000----0000---0000----0000-----0000------------------------------000--0-|
|-0000-8--0000-3-0000-13-0000-12--0000--(Other guitar does triplet)-000--0-|
|-0000----0000---0000----0000-----0000------------------------------000--0-|

-------

GUITAR 2
Verse 3 (Frame 1) [01:07]
|------------------------------------|
|-3-3-3-3-3-3-3-3--------------------|
|-2-2-2-2-2-2-2-2-3p2--0-------------|
|-0-0-0-0-0-0-0-0--------3-----------|
|-0-0-0-0-0-0-0-0------------0h1-3---|
|-0-0-0-0-0-0-0-0------------------3-|

|------------------------------------------------|
|------------------------------------------------|
|----7-9-9h10p9-7-----10101010101010101010101010-|
|--7--------------7---10101010101010101010101010-|
|---------------------8-8-8-8-8-8-8-8-8-8-8-8-8--|
|-0-------------------8-8-8-8-8-8-8-8-8-8-8-8-8--|

|------------------------------------|
|-3-3-3-3-3-3-3-3--------------------|
|-2-2-2-2-2-2-2-2-3p2--0-------------|
|-0-0-0-0-0-0-0-0--------3-----------|
|-0-0-0-0-0-0-0-0------------0h1-3---|
|-0-0-0-0-0-0-0-0------------------3-|

|----------------------|
|----------------------|
|----7-9-9h10p9-7------|
|--7--------------7----|
|----------------------|
|-0--------------------|X4

Fill [01:26]
|-------------------|
|-------------------|
|-12/14-14/15-12/14-|
|-------------------|
|-10/12-12/13-10/12-|
|-------------------|

Verse 3 (End Frame 1)
|--------------------------------------------------|
|--------------------------------------------------|
|------10------5------3-------2--12/14-14/15-12/14-|
|-0000----0000---0000----0000-0--------------------|
|-0000-8--0000-3-0000-1--0000-0--10/12-12/13-10/12-|
|-0000----0000---0000----0000----------------------|

Verse 3 (End Frame 2)
|---------------------------------------------------------------------------------|
|---------------------------------------------------------------------------------|
|------10------5------3-------2---------------------------------------------------|
|-0000----0000---0000----0000-0----------------------------------000--------------|
|-0000-8--0000-3-0000-1--0000-0------(Other guitar does triplet)-000--(And again)-|
|-0000----0000---0000----0000------------------------------------000--------------|
________________________________________________________________________________

Interlude 1 [01:35]
|-----------------------------------------------|
|-----------------------------------------------|
|--------------------------12/14-14/15-12/14----|
|-000000000000000000000000-------------------0~-|
|-000000000000000000000000-10/12-12/13-10/12-0~-|
|-000000000000000000000000-------------------0~-| Wait for other guitar to do that, then repeat.
________________________________________________________________________________

GUITAR 1
Interlude 1 [01:35]

(Other guitar down picks 0 while you let last chord of verse 3 end frame 2 ring out)

|--------------------------------------------------------------|
|--------------------------------------------------------------|
|--------------------------------------------12/14-14/15-12/14-|
|-12/14-14/15-12/14-000000000000000000000000-------------------|
|-10/12-12/13-10/12-000000000000000000000000-10/12-12/13-10/12-|
|-------------------000000000000000000000000-------------------|

(Other guitar does down picking)

Interlude 1 (Fill 1) [01:49]
|---0---0-|
|-6---6---|
|---------|
|---------|
|---------|
|---------|

End Interlude 1 [01:50]
|--------------------------------------------------------------|
|--------------------------------------------------------------|
|--------------------------------------------12/14-14/15-12/14-|
|-12/14-14/15-12/14-000000000777700000770000-------------------|
|-10/12-12/13-10/12-000000000777700000770000-10/12-12/13-10/12-|
|-------------------000000000555500000550000-------------------|
________________________________________________________________________________

GUITAR 1
Break-down 1

(Other guitar down picks 0 while vocals come in) {"Lose Control!"}

[01:59]
|------------------------------------------------------------------------------|
|------------------------------------------------------------------------------|
|------------------12/13-14/15-12/14-------------------12/14-14/15-12/14-------|
|-0000000000000000--------------------0000000000000000--------------------0|||-|
|-0000000000000000-10/12-12/13-10/12--0000000000000000-10/12-12/13-10/12--0|||-|
|-0000000000000000--------------------0000000000000000--------------------0|||-|
________________________________________________________________________________

Fill 2 [02:10]
|---------------------|
|---------------------|
|----------13^(14)|||-|
|-------12------------|
|----11---------------|
|-/12-----------------|


---

Break-down 1

{"Lose Control!"}
|----------|
|----------|
|----------|
|-00000000-|
|-00000000-|
|-00000000-|

[01:59]
|------------------------------------------------------------------------------|
|------------------------------------------------------------------------------|
|------------------12/13-14/15-12/14-------------------12/14-14/15-12/14-------|
|-0000000000000000--------------------0000000000000000--------------------0|||-|
|-0000000000000000-10/12-12/13-10/12--0000000000000000-10/12-12/13-10/12--0|||-|
|-0000000000000000--------------------0000000000000000--------------------0|||-|
________________________________________________________________________________
(Other guitar does fill here)
________________________________________________________________________________

GUITAR 1
Statement Riff (Frame 1) [02:13]
|-----------------------------------------|
|-----5~----------5~----------------------|
|-----4~----------4~----------------------|
|-0-0-3---0-1p0-0-3---0-0-110-0-110-0-000-|
|-0-0-3---0-1p0-0-3---0-0-110-0-110-0-000-|
|-0-0-3---0-1p0-0-3---0-0 110-0-110-0-000-|

Statement Riff (Frame 2) [02:18]
|---------------------------------------|
|-----5~----------5~--------------------|
|-----4~----------4~--------------------|
|-0-0-3---0-1p0-0-3---0-000-5h6-5p0-000-|
|-0-0-3---0-1p0-0-3---0-000-5h6-5p0-000-|
|-0-0-3---0-1p0-0-3---0-000-5h6-5p0-000-|

Statement Riff (Frame 1 #2) [02:23]
|-----------------------------------------|
|-----5~----------5~----------------------|
|-----4~----------4~----------------------|
|-0-0-3---0-1p0-0-3---0-0-110-0-110-0-000-|
|-0-0-3---0-1p0-0-3---0-0-110-0-110-0-000-|
|-0-0-3---0-1p0-0-3---0-0 110-0-110-0-000-|

Statement Riff (Frame 3) [02:29]
|---------------------------|
|-----5~----------5~--------|
|-----4~----------4~--------|
|-0-0-3---0-1p0-0-3---0-000-|
|-0-0-3---0-1p0-0-3---0-000-|
|-0-0-3---0-1p0-0-3---0-000-|

---

GUITAR 2
Statement Riff (Frame 1) [02:13]
|-----------------------------------------|
|-----5~----------5~----------------------|
|-----4~----------4~----------------------|
|-0-0-3---0-1p0-0-3---0-0-110-0-110-0-000-|
|-0-0-3---0-1p0-0-3---0-0-110-0-110-0-000-|
|-0-0-3---0-1p0-0-3---0-0 110-0-110-0-000-|

Statement Riff (Frame 2) [02:18]
|---------------------------------------|
|-----5~----------5~--------------------|
|-----4~----------4~--------------------|
|-0-0-3---0-1p0-0-3---0-000-5h6-5p0-000-|
|-0-0-3---0-1p0-0-3---0-000-5h6-5p0-000-|
|-0-0-3---0-1p0-0-3---0-000-5h6-5p0-000-|

Statement Riff (Frame 1 #2) [02:23]
|-----------------------------------------|
|-----5~----------5~----------------------|
|-----4~----------4~----------------------|
|-0-0-3---0-1p0-0-3---0-0-110-0-110-0-000-|
|-0-0-3---0-1p0-0-3---0-0-110-0-110-0-000-|
|-0-0-3---0-1p0-0-3---0-0 110-0-110-0-000-|

Statement Riff (Frame 3) [02:29]
|---------------------------|
|-----5~----------5~--------|
|-----4~----------4~--------|
|-0-0-3---0-1p0-0-3---0-000-|
|-0-0-3---0-1p0-0-3---0-000-|
|-0-0-3---0-1p0-0-3---0-000-|
________________________________________________________________________________

GUITAR 2
Fill [02:35]
|-----------------------------|
|-----------------------------|
|-----------------------------|
|-000-5h6-5p0-000-5h9-8p0-000-|
|-000-5h6-5p0-000-5h9-8p0-000-|
|-000-5h6-5p0-000-5h9-8p0-000-|
________________________________________________________________________________

GUITAR 1
(Other guitar does another fill before both guitars do fill below) [02:31]

Fill 3 [02:34]
|--------|
|--------|
|--------|
|-0-0000-|
|-0-0000-|
|-0-0000-|
________________________________________________________________________________

GUITAR 1
Bridge 2 [02:37]
|-----------------------------------------------------------------------------|
|--------------------------------------------------------10-10-10-10-10-10-10-|
|--------------------------------------------------------13-13-13-13-13-13-13-|
|-5h6-5p0-000-5h9-8p0-000-5h6--5h6-5p0-000-5h9-8p0-0-000----------------------|
|-5h6-5p0-000-5h9-8p0-000-5h6--5h6-5p0-000-5h9-8p0-0-000----------------------|
|-5h6-5p0-000-5h9-8p0-000-5h6--5h6-5p0-000-5h9-8p0-0-000----------------------|

GUITAR 2
Bridge 2 [02:37]
|-------------------------------------------------------------------|
|-------------------------------------------------------------------|
|-------------------------------------------------------------------|
|-5h6-5p0-000-5h9-8p0-000-5h6--5h6-5p0-000-5h9-8p0-0-000--0-0-0-0-0-|
|-5h6-5p0-000-5h9-8p0-000-5h6--5h6-5p0-000-5h9-8p0-0-000--0-0-0-0-0-|
|-5h6-5p0-000-5h9-8p0-000-5h6--5h6-5p0-000-5h9-8p0-0-000--0-0-0-0-0-|
________________________________________________________________________________

GUITAR 1
Verse 4 [02:45]
vv Half pick, half strum this chord|   vv Find out strumming pattern for this chord
|-8-|                                |----|
|-6-|                                |----|
|-5-|                                |-10-|
|-7-|                                |-10-|
|-5-|                                |-8--|
|---|                                |-8--| Both of them X2

GUITAR 2
Verse 4 [02:45]
|-------------------------------------------------------|
|-------------------------------------------------------|
|-----10-9-----10-9-9-10-9-----9-10------9-10-9PH^1F.R9-|
|---7--------7---------------7---------7----------------|
|-------------------------------------------------------|
|-0--------0---------------0---------0------------------|

(work out strumming pattern)
|----|
|----|
|-10-|
|-10-|
|-8--|
|-8--|
________________________________________________________________________________

GUITAR 1
Fill 1 #2
|-------------12h13-------|
|-------13p10-------13/15-|
|-10h12-------------------|
|-------------------------|
|-------------------------|
|-------------------------|
________________________________________________________________________________

GUITAR 1
Build Up (clean) (Frame 1) [03:17]                       vStrum and change back and forth from v
|-10-----------------------------------------------------5-------------------------------------5-|
|----10-(Other guitar picks some half distorted notes)---5-------------------------------------6-|
|--------------------------------------------------------7-------------------------------------7-|
|--------------------------------------------------------7-------------------------------------7-|
|--------------------------------------------------------5-------------------------------------5-|
|------------------------------------------------------------------------------------------------|

Build Up (Clean) (Frame 2) [03:47]
[Work out strumming pattern]                   [04:08] 
|------------------------------------------|   |-10-|
|------------------------------------------|   |-10-|
|-14--12/14-14--12/14--10--12/14--10-12/14-|   |----|
|------------------------------------------|   |----|
|-12--10/12-12--10/12--8---10/12--8--10/12-|   |----|
|------------------------------------------|X2 |----|

Build Up (Light Distortion) (Frame 3) [04:11]
|-(10)-------------------17-------15-------------13----12h13p12----12h13p12-------------12-13-13h15p13------|
|-(10)----------------------17-17----17-17-15-15---15-----------13----------13--------13--------------15/17-|
|-----------------------------------------------------------------------------14-12-14----------------------|
|-------14-12-15-14~-`\-------------------------------------------------------------------------------------|
|--------------------`\-------------------------------------------------------------------------------------|
|-------12-10-13-12~-`\-------------------------------------------------------------------------------------|X2

---

GUITAR 2
Build Up (Frame 1) [03:17]
|------------------|
|-5--5---5-6---6-5-|
|-5----5-----5-----|
|-7----------------|
|-5----------------|
|------------------|X4

Build Up (Frame 2)
|-5-|
|-5-|   <---Srum for ages
|-7-|
|-7-|
|-5-|
|---|

Build Up (Frame 1 #2) [04:08]
|------------------|
|-5--5---5-6---6-5-|
|-5----5-----5-----|
|-7----------------|
|-5----------------|
|------------------|X4
________________________________________________________________________________

GUITAR 1
Climax 1 [04:30] (Shread these notes Except last 3)
|----------------------------20---------------20-------------|
|-18-17-15-15-17-18-20-22----------22----20---------20h22----|
|-------------------------22----22----22----21---22-------22-|
|------------------------------------------------------------|
|------------------------------------------------------------|
|------------------------------------------------------------|X2

GUITAR 2
Climax 1 [04:30] (Other guitar is shreading high notes)
(Work out strumming pattern)
|-5------------|
|-5------------|
|-7---------10-|
|-7---------10-|
|-5---------8--|
|-----------8--|X2
________________________________________________________________________________

GUITAR 1
Build Up 2 (Frame 1) [04:50]
|----------------------------------------|
|-(5)--5---5-6---6-5---5--5-6---6---6-5~-|
|-(5)----5-----5-------5------5---5------|
|-(7)------------------7-----------------|
|-(5)------------------5-----------------|
|----------------------------------------|

Build Up 2 (Frame 2) [05:03] (Just pick that while the other guitar picks other notes)
|------|
|------|
|------|
|--12--|
|------|
|------|

---

GUITAR 2
Build Up 2 (Frame 1) [04:50]
|------------------------|
|------------------------|
|-14-12-15-14----14---14-|
|------------------------|
|-12-10-13-12----12---12-|
|------------------------|

Build Up 2 (Frame 2) [05:03]
|-13----13----13----13----12--12---12--12----|
|--------------------------------------------|
|----14----14----14----14---14---14--14---14-|
|--------------------------------------------|
|--------------------------------------------|
|--------------------------------------------|X3

Build Up 2 (Frame 2) Continued
|-12--12--12--12--12--12--12--12---|
|----------------------------------|
|---14--14--14--14--14--14--14--14-|
|----------------------------------|
|----------------------------------|
|----------------------------------|
________________________________________________________________________________

GUITAR 1
Climax 2 [05:15]
|-(17)-17-------17-------17-------17-------18----20----20---20----20----18---18--17--17---17--18-|
|-(15)----15-15----15-15----15-15----15-15----15----15----15---15----15----15--15--15---15--15---|
|------------------------------------------------------------------------------------------------|
|------------------------------------------------------------------------------------------------|
|------------------------------------------------------------------------------------------------|
|------------------------------------------------------------------------------------------------|

Climax 2 Continued (At the change) [05:23]
|-(20)-20------20-------20-----20-----20-------20-------20----20----------------|
|-(18)----18-18---18-18----18-----18-----15-15----15-15----15----15-------------|
|-------------------------------------------------------------------------------|
|-------------------------------------------------------------------------------|
|-------------------------------------------------------------------------------|
|-------------------------------------------------------------------------------|

Climax 2 Continued (At the last change of the second climax) [05:25]
|-(17)-17------17-------17-----17-----15-------15-------15----15----15h17p15-----------|
|-(18)----18-18---18-18----18-----18-----18-18----18-18----18----18----------18/20-18~-|
|--------------------------------------------------------------------------------------|
|--------------------------------------------------------------------------------------|
|--------------------------------------------------------------------------------------|
|--------------------------------------------------------------------------------------|

---

GUITAR 2
Climax 2 [05:15] {"So familiar, yet so far away"}
(Work out strumming pattern)
|---------------------------------------------------|
|---------------------------------------------------|
|-10---12---17---15---14--15--17--10-12--14--15--17-|
|---------------------------------------------------|
|-8----10---15---13---12--13--15--8--10--12--13--15-|
|---------------------------------------------------|
________________________________________________________________________________

GUITAR 1
Quiet Bit [05:28]
(Both guitars take turns in playing this chord. This guitar part plays 2nd and 4th time)
|----|
|-10-|
|-9--|
|-7--|
|-7--|
|-7--|X4

---

GUITAR 2
Quiet Bit [05:28]
(Both guitars take turns in playing this chord. This guitar part plays 1st and 3rd time)
|----|
|-10-|
|-9--|
|-7--|
|-7--|
|-7--|X4
________________________________________________________________________________

GUITAR 1
Climax/End (Frame 1) [05:40] {"There is a choice to make"}
|-----------------------------------------------|
|-----------------------------------------------|
|-1010101010101010--7-77-7-7-77-7-7-77-7-7-77-7-|
|-1010101010101010--7-77-7-7-77-7-7-77-7-7-77-7-|
|-8-8-8-8-8-8-8-8---5-55-5-5-55-5-5-55-5-5-55-5-|
|-----------------------------------------------|

      (I think on the studio a third guitar plays this somehwere in this section while both guitars go skits on
        the section above. But i can fit it in normally without it sounding bad. Your choice if you do or not.)
 (|----------------------------------------|)
 (|----------------------------------------|)
 (|-14-12-15-14----------------------------|)
 (|----------------------------------------|)
 (|-12-10-13-12----------------------------|)
 (|----------------------------------------|)

Climax/End (Frame 2) [06:04] {"This is a need, that we learn like a new limb"}
|------------------------------------------------|
|-18+-17+---------18+-17+---------17h18p17-------|
|---------17+-19+---------17+-19+----------17h19-|
|------------------------------------------------|
|------------------------------------------------|
|------------------------------------------------|

Climax/End (Frame 2) Continued at the change.
|-------20----------------20--------------|
|-22----------22----20-----------20----20-|
|----22----22----22----21----21-----21----|
|-----------------------------------------|
|-----------------------------------------|
|-----------------------------------------|X2

Climax/End (Frame 3) Continues straight away from frame 2.
|---------17-------17-------17----17----20-------20-------20----20-----15----15---15----20---20------|
|-18+--------15-15----15-15----15----15----15-15----15-15----15----15-----17----17---17---17---17-20-|
|-----19+--------------------------------------------------------------------------------------------|
|----------------------------------------------------------------------------------------------------|
|----------------------------------------------------------------------------------------------------|
|----------------------------------------------------------------------------------------------------|X2

---

GUITAR 2
Climax/End (Frame 1) [05:40] {"There is a choice to make"}
(Work out strumming pattern)
|-------------------------------|
|------3--------------------3---|
|-10---2-----(---------10)--2---|
|-10---0---8-(---------10)--0-8-|
|-8----0---8-(---------8-)--0-8-|
|------0---8-(could be 8-)--0-8-|

(This can fit in places somewhere if ya wanna)
(|-------------|)
(|-------------|)
(|-14-12-15-14-|)
(|-------------|)
(|-12-10-13-12-|)
(|-------------|)

Climax/End (Frame 2) [06:22]
|------------------------17------17-------15-----15-----------13---12h13p12--12h13p12------12-13-13h15p13------|
|-3-3-3-3-3-3-3-3-3-3------17-17----17-17---17-17--17-17-15-15--15---------13--------13--13--------------13/15-|
|-2-2-2-2-2-2-2-2-2-2------------------------------------------------------------------14----------------------|
|-0-0-0-0-0-0-0-0-0-0------------------------------------------------------------------------------------------|
|-0-0-0-0-0-0-0-0-0-0------------------------------------------------------------------------------------------|
|-0-0-0-0-0-0-0-0-0-0------------------------------------------------------------------------------------------|X3

Climax/End (Frame 3) (Last 3 notes are very faint)
|-------------------------------17+-20-22-|
|-3-3-3-3-3-3-3-3-3-3---------------------|
|-2-2-2-2-2-2-2-2-2-2-----19+-------------|
|-0-0-0-0-0-0-0-0-0-0---------------------|
|-0-0-0-0-0-0-0-0-0-0---------------------|
|-0-0-0-0-0-0-0-0-0-0---------------------|
________________________________________________________________________________

GUITAR 1
Outro [07:10] (Other guitar shreads higher notes here.)
|-13----13----13----13----12----12----12---12-------------|
|---------------------------------------------------------|
|----14----14----14----14----14----14----14---14----------|
|---------------------------------------------------------|
|---------------------------------------------------------|
|---------------------------------------------------------|
^^^Slowly fades out^^^

---

GUITAR 2
Outro [07:07]
|-17+--------17+-------------|
|-----18+--------18+-17+-15+-|
|----------------------------|
|----------------------------|
|----------------------------|
|----------------------------|

________________________________________________________________________________
THE FUCKING END *Sigh of releif*
Tap to rate this tab
 
# A B C D E F G H I J K L M N O P Q R S T U V W X Y Z