Song name
# A B C D E F G H I J K L M N O P Q R S T U V W X Y Z

Misfits - Devils Whorehouse tab

-----------------------------------------------------------------------------
                    Devil's Whorehouse-The Misfits
-----------------------------------------------------------------------------
Tabbed by: Dann Cove
Email: notoriousdoc99@hotmail.co.uk

Tuning: Standard

Intro/verse
e|-------------------|
B|-------------------|
G|-------------------|
D|-------------------|
A|-------------------|
E|--0-2-3-22-23-5-3--|x2 for intro, x4 for verse

Chorus
e|--------------------------------------------|
B|--------------------------------------------|
G|--5-9-9-7-10-10-9/7-97-5-9-9-7-10-10-12-12--|
D|--5-9-9-7-10-10-9/7-97-5-9-9-7-10-10-12-12--|
A|--3-7-7-5-8--8--7/5-75-3-7-7-5-8--8--10-10--|
E|--------------------------------------------|

Post-chorus
e|---------------------------|
B|---------------------------|
G|---------------------------|
D|--12-12-12-12-12-12-10-11--|
A|--12-12-12-12-12-12-10-11--|
E|--10-10-10-10-10-10-8--9---|

Ending
e|---------|
B|---------|
G|--9*-----|
D|--9*--2--|
A|--7*--2--|
E|------0--| *Play it a few times for the last "Whoa!"s

Intro
Verse
Chorus
Intro
Verse
Chorus
Post Chorus
Intro
Verse
Chorus
Post Chorus
Chorus x 2
Ending
Tap to rate this tab
# A B C D E F G H I J K L M N O P Q R S T U V W X Y Z