Song name
# A B C D E F G H I J K L M N O P Q R S T U V W X Y Z

Misfits - Ballroom Blitz tab

Riff:
e-----------------|
B-----------------|
G-----------------|
D--9-11-12-11--9--|
A--7--7--7--7--7--|
E-----------------|

Intro:
Drums

Are you ready Steve? Andy? Mick?
Alright fellas lets gooooooo

Riff x4

Verse:

------------------------------------------------------|
------------------------------------------------------|
---5--5--5--5--5--5--5--5--5--5--5--5--5--5--5--5-----|
---5--3--5--3--5--5--5--5--5--5--5--5--5--5--5--5-----| Riff x2
---3--3--3--3--3--3--3--3--3--3--3--3--3--3--3--3-----|
------------------------------------------------------|
 
This mostley the main riff in the whole song 
Tap to rate this tab
# A B C D E F G H I J K L M N O P Q R S T U V W X Y Z