Mishka - Shadow In The Shade chords

Highlighted       Show chord diagrams
-------------------------------------------------------------------------------
			     SHADOW IN THE SHADE - Mishka
-------------------------------------------------------------------------------
Tabbed by: Andri

Tuning: Standard

Verse:

B  C#m  F#  E
|--7--4---9--7--|
|--7--5--11--9--|
|--8--6--11--9--|
|--9--6--11--9--|
|--9--4---9--7--|
|--7--x---x--x--|

Chorus:
E  B  F#  E  B
Tap to rate this tab
 
# A B C D E F G H I J K L M N O P Q R S T U V W X Y Z