Miss May I - Monument tab

[Monument]
[Miss May I]

Tuning: Drop C (CGCFAD/Drop D 1 Step Down)
joshuaoliveira@hotmail.com

here!
for all of you that dont hav guitar pro!
and for all of you that can't open greybush's gp6 files hehe these are
direct transcriptions of my gp5 files, so yes, there are gp5s for the
whole album pending approval atm. if you dont see them by the time this
is up, email me! i have em lol

here goes, this is how you play Monument.. :P

----------------------------------------------------------------------------|
----------------------------------------------------------------------------|
1. Our Kings ---------------------------------------------------------------|
----------------------------------------------------------------------------|
----------------------------------------------------------------------------|

[Riff 1, Guitar 1 & 2] - [00:00] - [00:09]
- -----------------------------------------------------------------|
- -----------------------------------------------------------------|
- -----------------------------------------------------------------|
- -------------------------3p2-----------------------------3p2-----|
- -5---4---5---0h1---5---------5p4-5---4---5---0h1---5---------5p4-|
- ---0---0---0-----0---0-0-----------0---0---0-----0---0-0---------|
PM   .   .   .     .   ...           .   .   .     .   ...
-
- -----------------------------------------------------------------|
- -----------------------------------------------------------------|
- -----------------------------------------------------------------|
- -0~--------------------------------------------------------------|
- -0~--------------------------------------------------------------|
- -0~--------------------------------------------------------------|


- -----------------------------------------------------------------|
- -----------------------------------------------------------------|
- -----------------------------------------------------------------|
- -------------------------3p2-----------------------------3p2-----|
- -5---4---5---0h1---5---------5p4-5---4---5---0h1---5---------5p4-|
- ---0---0---0-----0---0-0-----------0---0---0-----0---0-0---------|
PM   .   .   .     .   ...           .   .   .     .   ...
- -----------------------------------------------------------------|
- -----------------------------------------------------------------|
- -----------------------------------------------------------------|
- -------------------------7p5-----------------------------7p5-----|
- -8---7---8---4h5---8---------8p7-8---7---8---4h5---8---------8p7-|
- ---0---0---0-----0---0-0-----------0---0---0-----0---0-0---------|
PM   .   .   .     .   ...           .   .   .     .   ...

----------------------------------------------------------------------------

[Riff 2a] - [00:09] - [00:27-----------------------------------------| - [2x]
- -------------------------------------------------------------------|
- -------------------------------------------------------------------|
- -------------------------------------------------------------------|
- -------------------------3-2-----------------------------3-2-------|
- -5---4---5---0h1---5---------5-4-5---4---5---0h1---5---------5-4---|
- ---0---0---0-----0---0-0-----------0---0---0-----0---0-0-----------|
PM   .   .   .     .   ...           .   .   .     .   ...

- -----------------------------------------------------------------|
- -----------------------------------------------------------------|
- -----------------------------------------------------------------|
- ---------------3-------------------------------7-----------------|
- -----5---4h5-------5-----4---5-------8---7h8-------8-----7---8---|
- -5-5---5-----5---5---5-5---5-----8-8---8-----8---8---8-8---8-----|
PM ...   .     .   .   ...   .     ...   .     .   .   ...   .

[Riff 2b] - [00:18] - [00:27]
- -----------------------------------------------------------------|
- -----------------------------------------------------------------|
- -----------------------------------------------------------------|
- -------------------------7p5-----------------------------7p5-----|
- -8---7---8---4h5---8---------8p7-8---7---8---4h5---8---------8p7-|
- ---0---0---0-----0---0-0-----------0---0---0-----0---0-0---------|
PM   .   .   .     .   ...           .   .   .     .   ...

- ------------------------------------------------------------|
- ------------------------------------------------------------|
- ------------------------------------------------------------|
- ---------------7-----------------------------10-------------|
- -----8---7h8-------8-----7---8------12-10h12----12---10-12--|
- -5-5---5-----5---5---5-5---5-----8-8--8-----8--8--8-8--8----|
PM ...   .     .   .   ...   .     ...  .     .  .  ...  .

----------------------------------------------------------------------------

[Riff 3, Guitar 1 & 2] - [00:29] - [00:46]
- -----------------------------------------------------------------|
- -----------------------------------------------------------------|
- -----------------------------------------------------------------|
- -----------------------------------------------------------------|
- -8---7---8---10--8---7---8---10--8---7---8---10--8---7---8---10--|
- ---0---0---0---0---0---0---0---0---8---8---8---8---8---8---8---8-|
PM   .   .   .   .   .   .   .   .   .   .   .   .   .   .   .   .
-
- -----------------------------------------------------------------|
- -----------------------------------------------------------------|
- -----------------------------------------------------------------|
- -0-0-0-----------------------x-x-8-8-8-----------------------x-x-|
- -0-0-0-----------------------x-x-8-8-8-----------------------x-x-|
- -0-0-0-----------------------x-x-8-8-8-----------------------x-x-|


- -----------------------------------------------------------------|
- -----------------------------------------------------------------|
- -----------------------------------------------------------------|
- ---------------------------------------------7---------------7---|
- -8---7---8---10--8---7---8---10--8---7---8-------8---7---8-------|
- ---7---7---7---7---7---7---7---7---5---5---5---5---5---5---5---5-|
PM   .   .   .   .   .   .   .   .   .   .   .   .   .   .   .   .
-
- -----------------------------------------------------------------|
- -----------------------------------------------------------------|
- -----------------------------------------------------------------|
- -7-7-7-----------------------x-x-5-5-5~--------------------------|
- -7-7-7-----------------------x-x-5-5-5~--------------------------|
- -7-7-7-----------------------x-x-5-5-5~-------------/15\---------|


- -----------------------------------------------------------------|
- -----------------------------------------------------------------|
- -----------------------------------------------------------------|
- -----------------------------------------------------------------|
- -8---7---8---10--8---7---8---10--8---7---8---10--8---7---8---10--|
- ---0---0---0---0---0---0---0---0---8---8---8---8---8---8---8---8-|
PM   .   .   .   .   .   .   .   .   .   .   .   .   .   .   .   .
-
- -----------------------------------------------------------------|
- -----------------------------------------------------------------|
- -----------------------------------------------------------------|
- -------------8---------------8---------------8---------------8---|
- -12--10--12------12--10--12------12--10--12------12--10--12------|
- ---0---0---0---0---0---0---0---0---8---8---8---8---8---8---8---8-|
PM   .   .   .   .   .   .   .   .   .   .   .   .   .   .   .   .


- -----------------------------------------------------------------|
- -----------------------------------------------------------------|
- -----------------------------------------------------------------|
- ---------------------------------------------7---------------7---|
- -8---7---8---10--8---7---8---10--8---7---8-------8---7---8-------|
- ---7---7---7---7---7---7---7---7---5---5---5---5---5---5---5---5-|
PM   .   .   .   .   .   .   .   .   .   .   .   .   .   .   .   .
-
- -----------------------------------------------------------------|
- -----------------------------------------------------------------|
- ---------------------------------------------7---------------7---|
- -------------8---------------8---7---5---7-------7---5---7-------|
- -12--10--12------12--10--12--------------------------------------|
- ---7---7---7---7---7---7---7---7---5---5---5---5---5---5---5---5-|
PM   .   .   .   .   .   .   .   .   .   .   .   .   .   .   .   .

----------------------------------------------------------------------------

[Riff 4, Guitar 1 & 2] - [00:46] - [01:04-------------------------------| - [2x]
- ----------------------------------------------------------------------|
- ----------------------------------------------------------------------|
- ----------------------------------------------------------------------|
- -0~-------------------------------8~---------------7~------8---7\-----|
- -0~-------------------------------8~---------------7~------8---7\-----|
- -0~-------------------------------8~---------------7~------8---7\-----|
-
- --------------------------------------------------------------------|
- --------------------------------------------------------------------|
- ---------5----------------5--3--2---------5-------------------------|
- ----3---------------3-------------3--3----------------3---/8---7\---|
- -5-----5---------5-----5----------------5----------3-----3----------|
- --------------------------------------------------------------------|

im a lil iffy about the lead :P its so faded in the background lol

----------------------------------------------------------------------------

[Riff 5, Guitar 1 & 2] - [01:04] - [01:08]
- ---------------------------------|
- ---------------------------------|
- ---------------------------------|
- -0---------------0-------\\\\\\\-|
- -0---------------0-------\\\\\\\-|
- -0---------------0-------\\\\\\\-|
-
- ---------------------------------|
- ---------------------------------|
- ---------------------------------|
- -0---------------\\\\\\\\\\\\\\\-|
- -0---------------\\\\\\\\\\\\\\\-|
- -0---------------\\\\\\\\\\\\\\\-|

----------------------------------------------------------------------------

[Riff 2a + 2b] - [01:08] - [01:27]

----------------------------------------------------------------------------

[Riff 6] - [01:27] - [01:45------------------------------------------| - [2x]
- -------------------------------------------------------------------|
- -------------------------------------------------------------------|
- -------------------------------------------------------------------|
- -------------------------------------------------7-----------------|
- -5-----5-----5---4-----4-----4---8-----8-----8-------8---7---8-----|
- ---0-0---0-0---0---0-0---0-0---0---0-0---0-0---0---0---0---0---0---|
PM   ...   ...   .   ...   ...   .   ...   ...   .   .   .   .   .

- -----------------------------------------------------------------|
- -----------------------------------------------------------------|
- -----------------------------------------------------------------|
- -----------------------------------------------------------------|
- -5-----5-----5---4-----4-----4---8-----8-----8---7-----7-----7---|
- ---8-8---8-8---8---8-8---8-8---8---8-8---8-8---8---8-8---8-8---8-|
PM   ...   ...   .   ...   ...   .   ...   ...   .   ...   ...   .

----------------------------------------------------------------------------

[Riff 4, Guitar 1 & 2] - [01:45] - [02:03] - [2x]

----------------------------------------------------------------------------

[Riff 7, Guitar 1 & 2] - [02:03] - [02:12]
- -----------------------------------------------------------------|
- -----------------------------------------------------------------|
- -----------------------------------------------------------------|
- -----------------------------------------------------------------|
- -6-6-6-6---------6-6-6-----6-6-------------------6-6-6-6-3-3-3-3-|
- ---------0-0-0-0-------0-0-----0-0-0-0-0-0-0-0-0-----------------|
-
- -----------------------------------------------------------------|
- -----------------------------------------------------------------|
- -----------------------------------------------------------------|
- -0~--------------------------------------------------------------|
- -0~--------------------------------------------------------------|
- -0~--------------------------------------------------------------|


- ---------------------------------------------------------------------|
- ---------------------------------------------------------------------|
- ---------------------------------------------------------------------|
- ---------------------------------------------------------------------|
- -6-6-6-6---------6-6-6-----6-6---------------------------------------|
- ---------0-0-0-0-------0-0-----0-0-0-0-0-0-0-0-0-[2/3/4/6/8/9/10/12]-|
-
- ---------------------------------------------------------------------|
- ---------------------------------------------------------------------|
- ---------------------------------------------------------------------|
- ---------------------------------------------------------------------|
- ---------------------------------------------------------------------|
- -------------------------------------------------[2/3/4/6/8/9/10/12]-|

[Riff 8] - [02:12] - [02:22------------------------------------------| - [2x]
- -------------------------------------------------------------------|
- -------------------------------------------------------------------|
- -------------------------------------------------------------------|
- -------------------------------------------------------------------|
- -6-6-6-6---------6-6-6-----6-6-------------------6-6-6-6-3-3-3-3---|
- ---------0-0-0-0-------0-0-----0-0-0-0-0-0-0-0-0-------------------|

[Riff 9, Guitar 1 & 2] - [02:22] - [02:31]
- -----------------------------------------------------------------|
- -----------------------------------------------------------------|
- -----------------------------------------------------------------|
- -----------------------------------------------------------------|
- -0-0-0-0---------0-0-0-0---0---0-----------------0-0-0-0-0---0-0-|
- -0-0-0-0---------0-0-0-0---0---0-----------------0-0-0-0-0---0-0-|
PM ...............................................................
-
- -----------------------------------------------------------------|
- -----------------------------------------------------------------|
- -----------------------------------------------------------------|
- -----------------------------------------------------------------|
- -6-6-6-6---------6-6-6-----6-6-------------------6-6-6-6-3-3-3-3-|
- ---------0-0-0-0-------0-0-----0-0-0-0-0-0-0-0-0-----------------|


- -----------------------------------------------------------------|
- -----------------------------------------------------------------|
- -----------------------------------------------------------------|
- -----------------------------------------------------------------|
- -0-0-0-0---------0-0-0-0---0---0-----------------0-0-0-0-0-0-0-0-|
- -0-0-0-0---------0-0-0-0---0---0-----------------0-0-0-0-0-0-0-0-|
PM ...............................................................
-
- -----------------------------------------------------------------|
- -----------------------------------------------------------------|
- -----------------------------------------------------------------|
- -----------------------------------------------------------------|
- -6-6-6-6---------6-6-6-----6-6-------------------6-6-6-6-3-3-3-3-|
- ---------0-0-0-0-------0-0-----0-0-0-0-0-0-0-0-0-----------------|

[Riff 10] - [02:31] - [02:40]
- ---------------------------------------------------------------------|
- ---------------------------------------------------------------------|
- ---------------------------------------------------------------------|
- ---------------------------------------------------------------------|
- -0-0-0-0---------0-0-0-0---0---0---------------------0-0-0-0-0-0-0-0-|
- -1-1-1-1---------1-1-1-1---1---1-[2/3/4/6/8/9/10/12]-1-1-1-1-1-1-1-1-|
PM ...............................                     ...............

- -----------------------------------------------------------------|
- -----------------------------------------------------------------|
- -----------------------------------------------------------------|
- -----------------------------------------------------------------|
- -0-0-0-0---------0-0-0-0---0---0-----------------0-0-0-0-0-0-0-0-|
- -1-1-1-1---------1-1-1-1---1---1-----------------1-1-1-1-1-1-1-1-|
PM ...............................................................

[Riff 11a] - [02:40] - [02:49----------------------------------------| - [2x]
- -------------------------------------------------------------------|
- -------------------------------------------------------------------|
- -------------------------------------------------------------------|
- -------------------------------------------------------------------|
- -0-0-0-0---------0-0-0-0---0---0-----------------0-0-0-0-0-0-0-0---|
- -0-0-0-0---------0-0-0-0---0---0-----------------0-0-0-0-0-0-0-0---|
PM ...............................................................

[Riff 1, Guitar 1] - [02:40] - [02:49] - [2x]

-[2/3/4/6/8/9/10/12]- is the crazy sliding harmonic thing you hear, its
not that hard to do its just weird to try n put on paper :P just start
around like the 2nd fret, dont hold it just touch it, and strum while
sliding your finger up towards the 12th fret. the frets indicated are not
exact lol it might even be the wrong string and the wrong place :P but
thats the idea hahaha

----------------------------------------------------------------------------

[Riff 12, Guitar 1 & 2] - [02:49] - [02:51]
- ---------------------------------|
- ---------------------------------|
- ---------------------------------|
- -----------------------------7\--|
- -----5---4h5---------8---7h8-----|
- -5-5---5-----5-5-8-8---8---------|
PM ...   .     .......   .
-
- ---------------------------------|
- ---------------------------------|
- ---------------------------------|
- -5---------------8---------------|
- -5---------------8---------------|
- -5---------------8---------------|

----------------------------------------------------------------------------

[Riff 2a + 2b] - [02:51] - [03:10]

----------------------------------------------------------------------------

[Riff 13] - [03:10] - [03:12]
- ---------|
- ---------|
- ---------|
- -0-------|
- -0-------|
- -0-------|


----------------------------------------------------------------------------|
----------------------------------------------------------------------------|
2. Masses Of A Dying Breed -------------------------------------------------|
----------------------------------------------------------------------------|
----------------------------------------------------------------------------|

[Riff 1] - [00:00] - [00:31] - [12--|x]
- -5-------5-----8------------------|
- -6p5-6h8---8---------6h8---6p5----|
- -7-----------7-----7-----------7--| with whatever that effect is..
- -------------------------0--------| reverb, echo, sumthin lol
- ----------------------------------|
- ----------------------------------|

----------------------------------------------------------------------------

[Riff 2] - [00:10] - [00:31-----------| - [2x]
- ------------------------------------|
- ------------------------------------|
- ------------------------------------|
- -8~------10~---3~--0~------------7--|
- -8~------10~---3~--0~------------7--|
- -8~------10~---3~--0~------------7--|

in the build up before the next riff just palm mute n chug open lol
i think its there but hard to hear :P

----------------------------------------------------------------------------

[Riff 3a] - [00:31] - [00:52]
- ---------------------------------|
- -----------------------------6h8-|
- -----7---7-----7---7-----7h9-----|
- -000---0---000---0---0-0---------|
- ---------------------------------|
- ---------------------------------|
PM ...   .   ...   .   ...

- -----------------------------------|
- -----------------------------------|
- -----7---7-----7---7-----10---10\9-|
- -000---0---000---0---0-0----0------|
- -----------------------------------|
- -----------------------------------|
PM ...   .   ...   .   ...    .

- ---------------------------------|
- -----------------------------6h8-|
- -----7---7-----7---7-----7h9-----|
- -888---8---888---8---8-8---------|
- ---------------------------------|
- ---------------------------------|
PM ...   .   ...   .   ...

- -------------------------------8-|
- -----------------------------6---|
- -----7---7-----7---7-----7h9-----|
- -555---5---555---5---5-5---------|
- ---------------------------------|
- ---------------------------------|
PM ...   .   ...   .   ...

[Riff 3b] - [00:31] - [00:52]
- -----------------------------------------|
- -----------------------------------10h11-|
- -----10---10-----10---10-----10h12-------|
- -777----7----777----7----7-7-------------|
- -----------------------------------------|
- -----------------------------------------|
PM ...    .    ...    .    ...

- ----------------------------------------|
- -----------------------------11---11\10-|
- -----10---10-----10---10----------------|
- -777----7----777----7----7-7----7-------|
- ----------------------------------------|
- ----------------------------------------|
PM ...    .    ...    .    ...    .

- ----------------------------------------------------|
- ----------------------------------------------10h11-|
- --------10----10--------10----10--------10h12-------|
- -121212----12----121212----12----121212-------------|
- ----------------------------------------------------|
- ----------------------------------------------------|
PM ......    ..    ......    ..    ......

- --------------------------------------13-|
- --------------------------------10h11----|
- -----10---10-----10---10-----10----------|
- -888----8----888----8----8-8-------------|
- -----------------------------------------|
- -----------------------------------------|
PM ...    .    ...    .    ...

----------------------------------------------------------------------------

[Riff 4a] - [00:52] - [01:13--------| - [2x]
- ----------------------------------|
- ----------------------------------|
- ----------------------------------|
- ----------------------------------|
- -----5---5-----5---5-----5---5h8--|
- -000---0---000---0---000---0------|
PM ...   .   ...   .   ...   .

- ---------------------------------|
- ---------------------------------|
- ---------------------------------|
- ---------------------------------|
- -----5---5-----5---5-----5p7p5h7-|
- -000---0---000---0---000---------|
PM ...   .   ...   .   ...

- ---------------------------------|
- ---------------------------------|
- ---------------------------------|
- ---------------------------------|
- -----8---8-----7---7-----5---5---|
- -555---5---555---5---555---5---5-|
PM ...   .   ...   .   ...   .

- -----------------------------------|
- -----------------------------------|
- -----------------------------------|
- -----------------------------------|
- -----5---5-----5---5-----------5h8-|
- -888---8---888---8---888-0h5h8-----|
PM ...   .   ...   .   ...

[Riff 4b] - [01:02] - [01:13]
- ----------------------------------|
- ----------------------------------|
- ----------------------------------|
- ----------------------------------|
- -----8---8-----8---8-----8---8h12-|
- -000---0---000---0---000---0------|
PM ...   .   ...   .   ...   .

- ------------------------------------|
- ------------------------------------|
- ------------------------------------|
- ------------------------------------|
- -----8---8-----8---8-----12p10p8h10-|
- -000---0---000---0---000------------|
PM ...   .   ...   .   ...

- ---------------------------------|
- ---------------------------------|
- ---------------------------------|
- -----7---7-----5---5-------------|
- -------------------------8---8---|
- -555---5---555---5---555---5---5-|
PM ...   .   ...   .   ...   .

- -------------------------------------|
- -------------------------------------|
- -------------------------------------|
- -------------------------------------|
- -----8---8-----8---8------------8h12-|
- -888---8---888---8---888-0h8h12------|
PM ...   .   ...   .   ...

----------------------------------------------------------------------------

[Riff 5, Guitar 1 & 2] - [01:13] - [01:15]
- -----------------------------------|
- -----------------------------------|
- -----------------------------------|
- -0~--------------------------------|
- -0~--------------------------------|
- -0~--------------------------------|
-
- -----------------------------------|
- ----------------8----------------8-|
- ---7---9---10-------7---9---10-----|
- -0---0---0----0---0---0---0----0---|
- -----------------------------------|
- -----------------------------------|
PM .   .   .    .   .   .   .    .

----------------------------------------------------------------------------

[Riff 6a] - [01:15] - [01:36----------| - [2x]
- ------------------------------------|
- ------------------------------------|
- ------------------------------------|
- -8~------10~---3~--0~------0~----7--|
- -8~------10~---3~--0~------0~----7--|
- -8~------10~---3~--0~------0~----7--|

end with pickslide right before next riff

[Riff 6b] - [01:15] - [01:36--------------------------------------------| - [2x]
- ----------------------8---------------------------------8-------------|
- ----------------8-------10-----6h8----------------8-------10-----6h8--|
- ---7---9---10------------------------7---9---10-----------------------|
- -0---0---0----0---0-0------0-0-----0---0---0----0---0-0------0-0------|
- ----------------------------------------------------------------------|
- ----------------------------------------------------------------------|
PM .   .   .    .   ...      ...     .   .   .    .   ...      ...

- ----------------------8---------------------------------8--------8/10-|
- ----------------8-------10-----6h8----------------8-------10----------|
- ---7---9---10------------------------7---9---10-----------------------|
- -0---0---0----0---0-0------0-0-----0---0---0----0---0-0------0-0------|
- ----------------------------------------------------------------------|
- ----------------------------------------------------------------------|
PM .   .   .    .   ...      ...     .   .   .    .   ...      ...

----------------------------------------------------------------------------

[Riff 4a] - [01:36] - [01:57] - [2x]

[Riff 7] - [01:46] - [01:57]
- -----------------------------------------------------------------|
- -----------------------------------------------------------------|
- -----------------------------------------------------------------|
- -----------------------------------------------------------------|
- -000-000-----000---0-----000-000-000-000-----000---0-----000-000-|
- -000-000-----000---0-----000-000-000-000-----000---0-----000-000-|
PM ...............................................................

- -----------------------------------------------------------------|
- -----------------------------------------------------------------|
- -----------------------------------------------------------------|
- -----------------------------------------------------------------|
- -555-555-----555---5-----555-555-888-888-----888---8-----888-888-|
- -555-555-----555---5-----555-555-888-888-----888---8-----888-888-|
PM ...............................................................

----------------------------------------------------------------------------

[Riff 8] - [01:57] - [02:07-------------------------------------------------| - [2x]
- --------------------------------------------------------------------------|
- --------------------------------------------------------------------------|
- ---------------------------3-----3-----------------------------3-----3----|
- -------------------------/---\-/---\-------------------------/---\-/---\--|
- -000-000-----000-000-----0-0-0-0-0-0-000-000-----------------0-0-0-0-0-0--|
- -000-000-----000-000-----0-0-0-0-0-0-000-000-----------------0-0-0-0-0-0--|
PM .......................................................................

theres more than one way to fill a quarter note space. you can fit a
quarter note, two eighths, or four sixteenths evenly. or you can do two
sixteenths and an eighth like the first notes in the breakdown above.
thats all easy to put on paper.. you can also fit three notes evenly lol
which is where the tempo seems to slow down. now since i try to use every
"-" as a sixteenth note, and you cant divide these into 3s when you see
the / 3 \ on 3 notes, they are quarter notes divided into 3 notes!
lol useless rant.. but its not a 8th or 16th note, its in the middle :P
i didnt want anyone to get confused with that if i just wrote it normally
you can hear it in the song anyway what im talkin about :P

[Riff 9] - [02:07] - [02:17---------------------------------------------| - [2x]
- ----------------------------------------------------------------------|
- ----------------------------------------------------------------------|
- ---------------------------3-----3------------------------------------|
- -------------------------/---\-/---\----------------------------------|
- -000-000-----------------0-0-0-0-0-0-000-000-----000-000-----000-000--|
- -000-000-----------------0-0-0-0-0-0-000-000-----000-000-----000-000--|
PM ...................................................................

----------------------------------------------------------------------------

[Riff 1] - [02:17] - [02:38---------------| - [8x]
[Riff 2] - [02:17] - [02:38---------------| - [2x]
[Riff 5, Guitar 1 & 2] - [02:38] - [02:34-| - [2x]
[Riff 6a + 6b] - [02:34] - [03:04---------| - [2x]

[Riff 10] - [03:04] - [03:25]
- -----------------------------------------------------------------|
- -----------------------------------------------------------------|
- -----------------------------------------------------------------|
- -8-----------8-----------8-7-----5-----------5-----------5-7-----|
- -8-----8-8-8-8-----8-8-8-8-7-----5-----5-5-5-5-----5-5-5-5-7-----|
- -8-----8-8-8-8-----8-8-8-8-7-----5-----5-5-5-5-----5-5-5-5-7-----|
PM       .....       .....               .....       .....

- -----------------------------------------------------------------|
- -----------------------------------------------------------------|
- -----------------------------------------------------------------|
- -0-----------0-------------------0-----------0-------------7-----|
- -0-----0-0-0-0-----0-0-0-0-0-[7]-0-----0-0-0-0-----0-0-0-0-7-----|
- -0-----0-0-0-0-----0-0-0-0-0-----0-----0-0-0-0-----0-0-0-0-7-----|
PM       .....       .........           .....       .......

- -----------------------------------------------------------------|
- -----------------------------------------------------------------|
- -----------------------------------------------------------------|
- -8-----------8-----------8-7-----5-----------5-----------5-7-----|
- -8-----8-8-8-8-----8-8-8-8-7-----5-----5-5-5-5-----5-5-5-5-7-----|
- -8-----8-8-8-8-----8-8-8-8-7-----5-----5-5-5-5-----5-5-5-5-7-----|
PM       .....       .....               .....       .....

- -----------------------------------------------------------------|
- -----------------------------------------------------------------|
- -----------------------------------------------------------------|
- -0-----------0-------------------0-----------0-------------7-----|
- -0-----0-0-0-0-----0-0-0-0-0-0-0-0-----0-0-0-0-----0-0-0-0-7-----|
- -0-----0-0-0-0-----0-0-0-0-0-0-0-0-----0-0-0-0-----0-0-0-0-7-----|
PM       .....       .............       .....       .......

----------------------------------------------------------------------------

[Riff 11, Guitar 1 & 2] - [03:25] - [04:00]
- -----------------------------------------------------------------|
- -----------------------------------------------------------------|
- -----------------------------------------------------------------|
- -----------------------------------------------------------------|
- -----------------------------------------------------------------|
- -8~----------7~--5~---------/7~--0~--------------------------7~--|
-
- -----------------------------------------------------------------|
- -----------------------------------------------------------------|
- -----------------------------------------------------------------|
- -----------------------------------------------------------------|
- /8~----------7~--5~----------3~-/5~--------------------------7~--|
- -----------------------------------------------------------------|


- -----------------------------------------------------------------|
- -----------------------------------------------------------------|
- -----------------------------------------------------------------|
- -----------------------------------------------------------------|
- -----------------------------------------------------------------|
- /8~----------7~--5~---------/7~--0~--------------------------7~--|
-
- -----------------------------------------------------------------|
- -----------------------------------------------------------------|
- -----------------------------------------------------------------|
- -----------------------------------------------------------------|
- /8~----------7~-/10~--------\7~--5~--------------------------7~--|
- -----------------------------------------------------------------|


- -----------------------------------------------------------------|
- -----------------------------------------------------------------|
- -----------------------------------------------------------------|
- -----------------------------------------------------------------|
- -----------------------------------------------------------------|
- /8~----------7~--5~---------/7~--0~------------------------------|
-
- -----------------------------------------------------------------|
- -----------------------------------------------------------------|
- -----------------------------------------------------------------|
- -----------------------------------------------------------------|
- -8~---------/12~-10~---------7~--8~------------------------------|
- -----------------------------------------------------------------|


----------------------------------------------------------------------------|
----------------------------------------------------------------------------|
3. Answers -----------------------------------------------------------------|
----------------------------------------------------------------------------|
----------------------------------------------------------------------------|

[Riff 1a] - [00:03] - [00:21----------------------------------------| - [4x]
- ------------------------------------------------------------------|
- ------------------------------------------------------------------|
- ------------------------------------------------------------------|
- ------------------------------------------------------------------|
- -5-----5-----5-----5-----5-------5-----5-----5--------------------|
- ---0-0---0-0---0-0---0-0---7-8-5---0-0---0-0---0-3-1-0-1-4-3-1-3--|
PM   ...   ...   ...   ...           ...   ...   .

[Riff 2b] - [00:16] - [00:21----------------------------------------| - [2x]
- ------------------------------------------------------------------|
- ------------------------------------------------------------------|
- ------------------------------------------------------------------|
- ------------------------------------------------------------------|
- -8-----8-----8-----8-----8-------8-----8-----8--------------------|
- ---0-0---0-0---0-0---0-0---7-8-5---0-0---0-0---0-3-1-0-1-4-3-1-3--|
PM   ...   ...   ...   ...           ...   ...   .

----------------------------------------------------------------------------

[Riff 3] - [00:21] - [00:29-----------------------------------------| - [2x]
- ------------------------------------------------------------------|
- ------------------------------------------------------------------|
- ------------------------------------------------------------------|
- ------------------------------------------------------------------|
- -0-----0-----0-----0-----0-------0-----0-----0--------------------|
- -0-----0-----0-----0-----0-7-8-5-0-----0-----0---3-1-0-1-4-3-1-3--|
PM .........................       .............

----------------------------------------------------------------------------

[Riff 4a] - [00:29] - [00:47]
- ---------------------------------|
- ---------------------------------|
- ---------------------------------|
- -0---8---7---5---0---8---7---5---| strummed, 2 bars each
- -0---8---7---5---0---8---7---5---|
- -0---8---7---5---0---8---7---5---|

[Riff 4b] - [00:29] - [00:47]
- --------------------------------------------------------|
- --------------------------------------------------------|
- -7------10-----15-----14-----15-----12-----14-----10----|
- -x------x------x------x------x------x------x------x-----|
- -5(16x)-8(16x)-13(6x)-12(6x)-13(4x)-10(5x)-12(7x)-8(4x)-|
- --------------------------------------------------------|

- ---------------------------------------------------------|
- ---------------------------------------------------------|
- -10-----12------15-----14-----15-----12-----14-----10----|
- -x------x-------x------x------x------x------x------x-----|
- -8(21x)-10(11x)-13(6x)-12(6x)-13(4x)-10(5x)-12(7x)-8(4x)-|
- ---------------------------------------------------------|

----------------------------------------------------------------------------

[Riff 5] - [00:47] - [00:56-------------------------------------------| - [2x]
- --------------------------------------------------------------------|
- --------------------------------------------------------------------|
- --------------------------------------------------------------------|
- --------------------------------------------------------------------|
- -0-----0-----0-----0-------------0-----0-----0----------------------|
- -0-----0-----0-----0-------------0-----0-----0-----3-1-0-1-4-3-1-3--|
PM .............................................

----------------------------------------------------------------------------

[Riff 6] - [00:56] - [01:05]
- -----------------------------------------------------------------|
- -----------------------------------------------------------------|
- -----------------------------------------------------------------|
- -----------------------------------------------------------------|
- -0-----0-----0-----0-----0-------0-----0-----0-------------------|
- -0-----0-----0-----0-----0-7-8-5-0-----0-----0---3-1-0-1-4-3-1-3-|
PM .........................       .............

- -----------------------------------------------------------------|
- -----------------------------------------------------------------|
- -----------------------------------------------------------------|
- -----------------------------------------------------------------|
- -0-----0-----0-----0-----0-------0-----0-----0-------------------|
- -0-----0-----0-----0-----0-------0-----0-----0---3-1-0-1-4-3-1-3-|
PM .............................................

----------------------------------------------------------------------------

[Riff 7, Guitar 1 & 2] - [01:05] - [01:19---------------------------| - [3x]
- ------------------------------------------------------------------|
- ------------------------------------------------------------------|
- ------------------------------------------------------------------|
- ---------------7---------------8---------------7---8-7-5-7-5------|
- ---6p5---3h5-------6p5---3h5-------6p5---3h5-----------------7/8--|
- -0-----0-----0---0-----0-----0---0-----0-----0---0----------------|
-
- -----------------------------------------------------------------|
- -----------------------------------------------------------------|
- -----------------------------------------------------------------|
- -0~----------------------------------------------[12\10\8\6\4\2]-|
- -0~--------------------------------------------------------------|
- -0~--------------------------------------------------------------|

second guitar joins in with first part 2nd and 3rd time

that thing there that yur goin wtf is that?! is touched harmonics starting
at 12 sliding down to 2. you just touch, pluck and slide down lol dont
press :P

----------------------------------------------------------------------------

[Riff 8] - [01:19] - [01:36-------------------------------------------| - [2x]
- --------------------------------------------------------------------|
- --------------------------------------------------------------------|
- --------------------------------------------------------------------|
- -8-----8---7---5------------------8-----8---7---5-------------------|
- ---------------------8---8---8/10---------------------8---8---8/10--|
- ---5-5---5---5---5-5---5---5--------5-5---5---5---5-5---5---5-------|
PM   ...   .   .   ...   .            ...   .   .   ...   .   .

- -----------------------------------------------------------------|
- -----------------------------------------------------------------|
- -----------------------------------------------------------------|
- -7-----7---5---------------------7-----7---5---------------------|
- ---------------8-----7---7---7/8---------------8-----7---7---7/8-|
- ---0-0---0---0---0-0---0---0-------0-0---0---0---0-0---0---0-----|
PM   ...   .   .   ...   .   .       ...   .   .   ...   .   .

----------------------------------------------------------------------------

[Riff 9a] - [01:36] - [01:54]
- ------------------------------------------------------|
- ------------------------------------------------------|
- ------------------------------------------------------|
- -0------8------7--------------------------------------|
- -0------8------7------0-----0-----0-----0-----0-0-0-0-|
- -0(16x)-8(16x)-7(16x)-0-----0-----0-----0-----0-0-0-0-|
PM                      ...............................

- ------------------------------------------------------|
- ------------------------------------------------------|
- ------------------------------------------------------|
- -0------8------7--------------------------------------|
- -0------8------7------0-----0-----0-----0-----0-0-----|
- -0(16x)-8(16x)-7(16x)-0-----0-----0-----0-----0-0-----|
PM                      ...........................

[Riff 9b] - [01:36] - [01:54]
- ------------------------------------------------------|
- ------------------------------------------------------|
- -7------10-----15-----14-----15-----------------------|
- -x------x------x------x------x------------------------|
- -5(16x)-8(16x)-13(6x)-12(6x)-13(4x)-------------------|
- ------------------------------------------------------|

- ------------------------------------------------------|
- ------------------------------------------------------|
- -10-----12------15-----14-----15----------------------|
- -x------x-------x------x------x-----------------------|
- -8(21x)-10(11x)-13(6x)-12(6x)-13(4x)------------------|
- ------------------------------------------------------|

----------------------------------------------------------------------------

[Riff 10a] - [01:54] - [02:12]
- ------------------------------------|
- ------------------------------------|
- ------------------------------------|
- -0~------0~------0~------0~--4-1-0--|
- -0~------0~------0~------0~--4-1-0--|
- -0~------0~------0~------0~--4-1-0--|

[Riff 10b] - [01:54] - [02:12]
- -----------------------------------------------------------------|
- -----------------------------------------------------------------|
- -----------------------------------------------------------------|
- -----------------------------------------------------------------|
- -0-0-0-0-----0-0-0-0-----0-------------------0-0-0-0-0-0-0-0-0-0-|
- -0-0-0-0-----0-0-0-0-----0-------------------0-0-0-0-0-0-0-0-0-0-|
PM ...............................................................

- -----------------------------------------------------------------|
- -----------------------------------------------------------------|
- -----------------------------------------------------------------|
- -------------------------------------------------4-----1-----0---|
- -0-0-0-0-----0-0-0-0-----0-------------------0-0-4-----1-----0---|
- -0-0-0-0-----0-0-0-0-----0-------------------0-0-4-----1-----0---|
PM ...............................................

----------------------------------------------------------------------------

[Riff 11] - [02:12] - [02:30]
- -----------------------------------------------------------------|
- -----------------------------------------------------------------|
- -----------------------------------------------------------------|
- -----------------------------------------------------------------|
- -0-0-0-0-----0-0-0-0-----0-0-0-0-------------00000-0-0-0-0-0-0-0-|
- -0-0-0-0-----0-0-0-0-----0-0-0-0-------------00000-0-0-0-0-0-0-0-|
PM ...............................................................

- -----------------------------------------------------------------|
- -----------------------------------------------------------------|
- -----------------------------------------------------------------|
- -------------------------------------------------4-----1-----0---|
- -0-0-0-0-----0-0-0-0-----0-------------------0---4-----1-----0---|
- -0-0-0-0-----0-0-0-0-----0-------------------0---4-----1-----0---|
PM .............................................

- -----------------------------------------------------------------|
- -----------------------------------------------------------------|
- -----------------------------------------------------------------|
- -----------------------------------------------------------------|
- -0-0-0-0-----0-0-0-0-----0-0-0-0-------------00000-0-0-0-0-0-0-0-|
- -0-0-0-0-----0-0-0-0-----0-0-0-0-------------00000-0-0-0-0-0-0-0-|
PM ...............................................................

- -----------------------------------------------------------------|
- -----------------------------------------------------------------|
- -----------------------------------------------------------------|
- ---------------------------------4-----1-----0---5-----4-----1---|
- -0-0-0-0-----0-0-0-0-----0-0-0-0-4-----1-----0---5-----4-----1---|
- -0-0-0-0-----0-0-0-0-----0-0-0-0-4-----1-----0---5-----4-----1---|
PM ...............................

----------------------------------------------------------------------------

[Riff 1a + 1b] - [02:30] - [02:48]

[Riff 12] - [02:48] - [02:51]
- -----|
- -----|
- -----|
- -5---|
- -5---|
- -5---|


----------------------------------------------------------------------------|
----------------------------------------------------------------------------|
4. Relentless Chaos --------------------------------------------------------|
----------------------------------------------------------------------------|
----------------------------------------------------------------------------|

[Riff 1a] - [00:04] - [00:40--------------------------------------------| - [4x]
- ----------------------------------------------------------------------|
- -10-----8---10---6-----6-------6---10-----8---10---6-----6-------6----|
- ----------------------------------------------------------------------|
- ----0-0---0----0---0-0---0-0-0---0----0-0---0----0---0-0---0-0-0---0--|
- ----------------------------------------------------------------------|
- ----------------------------------------------------------------------|
PM    ...   .    .   ...   .....   .    ...   .    .   ...   .....   .

- -----------------------------------------------------------------|
- -----------------------------------------------------------------|
- -9-----7---9---5-----5-------5---9-----7---9---5-----5-------5---|
- ---7-7---7---7---7-7---7-7-7---7---7-7---7---7---7-7---7-7-7---7-|
- -----------------------------------------------------------------|
- -----------------------------------------------------------------|
PM   ...   .   .   ...   .....   .   ...   .   .   ...   .....   .

[Riff 1b] - [00:04] - [00:40--------------------------------------------| - [4x]
- ----------------------------------------------------------------------|
- ----------------------------------------------------------------------|
- -10-----9---10---7-----7-------7---10-----9---10---7-----7-------7----|
- ----------------------------------------------------------------------|
- ----------------------------------------------------------------------|
- ----0-0---0----0---0-0---0-0-0---0----0-0---0----0---0-0---0-0-0---0--|
PM    ...   .    .   ...   .....   .    ...   .    .   ...   .....   .

- -----------------------------------------------------------------------|
- -----------------------------------------------------------------------|
- -12-----10---12---9-----9-------9---12-----10---12---9-----9-------9---|
- -----------------------------------------------------------------------|
- ----0-0----0----0---0-0---0-0-0---0----0-0----0----0---0-0---0-0-0---0-|
- -----------------------------------------------------------------------|
PM    ...    .    .   ...   .....   .    ...    .    .   ...   .....   .

----------------------------------------------------------------------------

[Riff 2a] - [00:40] - [00:58-------------------------------------------| - [2x]
- ---------------------------------------------------------------------|
- ---------------------------------------------------------------------|
- ---------------------------------------------------------------------|
- -7-----7-----7-------------------------------------------------------|
- -----------------10-----10-----10---8-----8-----8---7-----7-----7----|
- ---0-0---0-0---0----0-0----0-0----0---0-0---0-0---0---0-0---0-0---0--|
PM   ...   ...   .    ...    ...    .   ...   ...   .   ...   ...   .

- --------------------------------------------------------------------|
- --------------------------------------------------------------------|
- --------------------------------------------------------------------|
- -7-----7-----7------------------------------------------------------|
- -----------------10-----10-----10---8-----8-----8---7-----7-----7---|
- ---8-8---8-8---8----8-8----8-8----8---8-8---8-8---8---8-8---8-8---8-|
PM   ...   ...   .    ...    ...    .   ...   ...   .   ...   ...   .

[Riff 2b] - [00:49] - [00:58----------------------------------------------| - [2x]
- ------------------------------------------------------------------------|
- ------------------------------------------------------------------------|
- ------------------------------------------------------------------------|
- -10-----10-----10---8-----8-----8---7-----7-----7-----------------------|
- ----------------------------------------------------10-----10-----10----|
- ----0-0----0-0----0---0-0---0-0---0---0-0---0-0---0----0-0----0-0----0--|
PM    ...    ...    .   ...   ...   .   ...   ...   .    ...    ...    .

- -----------------------------------------------------------------------|
- -----------------------------------------------------------------------|
- -----------------------------------------------------------------------|
- -10-----10-----10---8-----8-----8---7-----7-----7----------------------|
- ----------------------------------------------------10-----10-----10---|
- ----8-8----8-8----8---8-8---8-8---8---8-8---8-8---8----8-8----8-8----8-|
PM    ...    ...    .   ...   ...   .   ...   ...   .    ...    ...    .

----------------------------------------------------------------------------

[Riff 3, Guitar 1 & 2] - [00:58] - [01:02]
- -----------------------------------------------------------------|
- -----------------------------------------------------------------|
- -----------------------------------------------------------------|
- -----------------------------------------------------------------|
- -----5-------5---5p0---0---0---0h1---1-------1---1/3---3---------|
- -0-0---0-0-0---0-----0---0---0-----0---0-0-0---0-----0---0-3-1-0-|
PM ...   .....   .     .   .   .     .   .....   .     .   .
-
- ------------------------------------------------------------------|
- ------------------------------------------------------------------|
- ------------------------------------------------------------------|
- -0---------------0---------------\\\\\\\\\\\\\\\\\\\\\\\\\\-------|
- -0---------------0---------------\\\\\\\\\\\\\\\\\\\\\\\\\\-------|
- -0---------------0---------------\\\\\\\\\\\\\\\\\\\\\\\\\\-3-1-0-|

----------------------------------------------------------------------------

[Riff 4] - [01:02] - [01:11-----------------------------------------| - [2x]
- ------------------------------------------------------------------|
- ------------------------------------------------------------------|
- ------------------------------------------------------------------|
- ------------------------------------------------------------------|
- -----5-------5---5p0---0---0---0h1---1-------1---1/3---3----------|
- -------0-0-0---0-----0---0---0-----0---0-0-0---0-----0---0-3-1-0--|
PM       .....   .     .   .   .     .   .....   .     .   .

----------------------------------------------------------------------------

[Riff 5, Guitar 1 & 2] - [01:11] - [01:20]
- -----------------------------------------------------------------|
- -----------------------------------------------------------------|
- -----------------------------------------------------------------|
- -----------------------------------------------------------------|
- -----5-------5---5p0---0---0---0h1---1-------1---1/3---3---3h7p5-|
- -------0-0-0---0-----0---0---0-----0---0-0-0---0-----0---0-------|
PM       .....   .     .   .   .     .   .....   .     .   .
-
- ------------------------------------------------------------------|
- ------------------------------------------------------------------|
- ------------------------------------------------------------------|
- ------------------------------------------------------------------|
- -----8-------8---8p5---5---5---5h7---7-------5---5h7---7---7/10-8-|
- -------0-0-0---0-----0---0---0-----0---0-0-0---0-----0---0--------|
PM       .....   .     .   .   .     .   .....   .     .   .


- -----------------------------------------------------------------|
- -----------------------------------------------------------------|
- -----------------------------------------------------------------|
- ---------------------------------------------------------------0-|
- -----5-------5---5p0---0---0---0h1---1-------1---1/3---3---3h7-0-|
- -------0-0-0---0-----0---0---0-----0---0-0-0---0-----0---0-----0-|
PM       .....   .     .   .   .     .   .....   .     .   .
-
- ------------------------------------------------------------------|
- ------------------------------------------------------------------|
- ------------------------------------------------------------------|
- ----------------------------------------------------------------0-|
- -----8-------8---8p5---5---5---5h7---7-------5---5h7---7---7/10-0-|
- -------0-0-0---0-----0---0---0-----0---0-0-0---0-----0---0------0-|
PM       .....   .     .   .   .     .   .....   .     .   .

----------------------------------------------------------------------------

[Riff 6] - [01:20] - [01:29-----------------------------------------| - [2x]
- ------------------------------------------------------------------|
- ------------------------------------------------------------------|
- ------------------------------------------------------------------|
- ---------------------------------------------------------------0--|
- -----0-0-0-0-------------0-0-0-0-----0-0-0-0-------------1-----0--|
- -----0-0-0-0-------------0-0-0-0-----0-0-0-0---------------3-1-0--|
PM     .......................................

----------------------------------------------------------------------------

[Riff 7a] - [01:29] - [01:38----------------------------------------| - [2x]
- ------------------------------------------------------------------|
- ------------------------------------------------------------------|
- ------------------------------------------------------------------|
- ---------------------------------------------------------------0--|
- -----0-0-0-0-------------0-0-0-0-----0-0-0-0-------------0-0-0-0--|
- -----0-0-0-0-------------0-0-0-0-----0-0-0-0-------------0-0-0-0--|
PM     .......................................

[Riff 7b] - [01:29] - [01:39]
- ----------------------------------------------------------------------|
- -----10-------10---10p6---6---6---6/8---8-------6---6h8---8---8/11-10-|
- ----------------------------------------------------------------------|
- -0-0----0-0-0----0------0---0---0-----0---0-0-0---0-----0---0---------|
- ----------------------------------------------------------------------|
- ----------------------------------------------------------------------|
PM ...    .....    .      .   .   .     .   .....   .     .   .

- -------------------------------------------------------------------|
- -----10-------10---10p6---6---6---6/8---8-------8---8\5---5---5/6~-|
- -------------------------------------------------------------------|
- --------0-0-0----0------0---0---0-----0---0-0-0---0-----0---0------|
- -------------------------------------------------------------------|
- -------------------------------------------------------------------|
PM        .....    .      .   .   .     .   .....   .     .   .

----------------------------------------------------------------------------

[Riff 8, Guitar 1 & 2] - [01:38] - [01:40]
- -----------------------------------|
- -----------------------------------|
- -----------------------------------|
- -----------------/7----5-----------|
- -----------------------------8---\-|
- -----------------------------------|
-
- -----------------------------------|
- -----------------------------------|
- -----------------------------------|
- -----------------/10---8-----7---\-|
- -----------------------------------|
- -----------------------------------|

----------------------------------------------------------------------------

[Riff 9a] - [01:40] - [01:49]
- ------------------------------------------------------------------------|
- ------------------------------------------------------------------------|
- ------------------------------------------------------------------------|
- ------------------------------------------------------------------------|
- -----12-------12---12p8---8---8---8h10---10-------10---10p7---7---7---7-|
- --------0-0-0----0------0---0---0------0----0-0-0----0------0---0---0---|
PM        .....    .      .   .   .      .    .....    .      .   .   .

- ------------------------------------------------------------------------|
- ------------------------------------------------------------------------|
- ------------------------------------------------------------------------|
- ------------------------------------------------------------------------|
- -8---8-------8---8-----8---8-----10---10-------8---8h10---10---10/13-12-|
- ---8---8-8-8---8---8-8---8---8-8----8----8-8-8---8------8----8----------|
PM   .   .....   .   ...   .   ...    .    .....   .      .    .

[Riff 9b] - [01:40] - [01:49]
- -------------------------------------------------------------|
- -------------------------------------------------------------|
- -------------------------------------------------------------|
- -------------------------------------------------------------|
- -----8-------8---8p5---5---5---5h7-------7---7p4---4---4---4-|
- -------0-0-0---0-----0---0---0-----0-0-0---0-----0---0---0---|
PM       .....   .     .   .   .     .....   .     .   .   .


- ------------------------------------------------------------------|
- ------------------------------------------------------------------|
- ------------------------------------------------------------------|
- ------------------------------------------------------------------|
- -5---5-------5---5-----5---5-----7---7-------5---5h7---7---7/10-8-|
- ---8---8-8-8---8---8-8---8---8-8---8---8-8-8---8-----8---8--------|
PM   .   .....   .   ...   .   ...   .   .....   .     .   .

----------------------------------------------------------------------------

[Riff 10a] - [01:49] - [01:58]
- --------------------------------------------------------------------------|
- --------------------------------------------------------------------------|
- --------------------------------------------------------------------------|
- --------------------------------------------------------------------------|
- ----12-------12---12p8---8---8---8h13---13-------13---13p10---10---10--10-|
- -------0-0-0----0------0---0---0------0----0-0-0----0-------0----0----0---|
PM       .....    .      .   .   .      .    .....    .       .    .    .

- -------------------------------------------------------------------------|
- -------------------------------------------------------------------------|
- -------------------------------------------------------------------------|
- -------------------------------------------------------------------------|
- -12---12-------12---12p8---8---8-----10---10-------10---10p7---7---7---7-|
- ----8----8-8-8----8------8---8---8-8----7----7-7-7----7------7---7---7---|
PM    .    .....    .      .   .   ...    .    .....    .      .   .   .

[Riff 10b] - [01:49] - [01:58]
- ---------------------------------------------------------------------|
- ---------------------------------------------------------------------|
- ---------------------------------------------------------------------|
- ---------------------------------------------------------------------|
- -----8-------8---8p5---5---5---5h10---10-------10---10p7---7---7---7-|
- -------0-0-0---0-----0---0---0------0----0-0-0----0------0---0---0---|
PM       .....   .     .   .   .      .    .....    .      .   .   .

- -----------------------------------------------------------------|
- -----------------------------------------------------------------|
- -----------------------------------------------------------------|
- -----------------------------------------------------------------|
- -8---8-------8---8p5---5---5-----7---7-------7---7p4---4---4---4-|
- ---8---8-8-8---8-----8---8---8-8---7---7-7-7---7-----7---7---7---|
PM   .   .....   .     .   .   ...   .   .....   .     .   .   .

----------------------------------------------------------------------------

[Riff 11, Guitar 1 & 2] - [01:58] - [02:07]
- -----------------------------------------------------------------|
- -----------------------------------------------------------------|
- -----------------------------------------------------------------|
- -7~--------------------------8~--8~--------------------------7~--|
- -8~--------------------------8~--8~--------------------------8~--|
- -7~--------------------------8~--8~--------------------------7~--|
-
- -----------------------------------------------------------------|
- -----------------------------------------------------------------|
- -14-------10----------------/15--15------10-----------------/14--|
- -x--------x------------------x---x-------x-------------------x---|
- -12-------8-----------------/13--13------8------------------/12--|
- -----------------------------------------------------------------|

- -----------------------------------------------------------------|
- -----------------------------------------------------------------|
- -----------------------------------------------------------------|
- -7~--------------------------8~--8~------------------------------|
- -8~--------------------------8~--8~------------------------------|
- -7~--------------------------8~--8~------------------------------|
-
- -----------------------------------------------------------------|
- -----------------------------------------------------------------|
- -14-------10----------------/15--15---------/17--17--------------|
- -x--------x------------------x---x-----------x---x---------------|
- -12-------8-----------------/13--13---------/15--15--------------|
- -----------------------------------------------------------------|

----------------------------------------------------------------------------

[Riff 1a + 1b] - [02:07] - [02:25] - [2x]

[Riff 12] - [02:25] - [02:42]
- -----------------------------------------------------------------------|
- -----------------------------------------------------------------------|
- -----------------------------------------------------------------------|
- -----------------------------------------------------------------------|
- -12-----10---12---------------------12-----10---12---------------------|
- ----0-0----0----0-0-0-0-0-0-0-0-0-0----0-0----0----0-0-0-0-0-0-0-0-0-0-|
PM    ...    .    .   ...   .   .   .    ...    .    .   ...   .   .   .

- -------------------------------------------------------------------|
- -------------------------------------------------------------------|
- -------------------------------------------------------------------|
- -------------------------------------------------------------------|
- -10-----8---10---------------------8-----7---8---------------------|
- ----8-8---8----8-8-8-8-8-8-8-8-8-8---7-7---7---7-7-7-7-7-7-7-7-7-7-|
PM    ...   .    .   ...   .   .   .   ...   .   .   ...   .   .   .

----------------------------------------------------------------------------

[Riff 13, Guitar 1 & 2] - [02:42] - [02:47]
- ---------------------------------5~------------------------------|
- ---------------------------------5~------------------------------|
- ---------------------------------7~------------------------------|
- -0~------------------------------8~------------------------------|
- -0~--------------------------------------------------------------|
- -0~------------------------------------------------------0v------|
-
- -----------------------------------------------------------------|
- -----------------------------------------------------------------|
- ---------------------------------10~-----------------------------|
- -0~------------------------------x-------------------------------|
- -0~------------------------------8~------------------------------|
- -0~------------------------------------------------------0v------|

----------------------------------------------------------------------------

[Riff 14] - [02:47] - [03:05----------------------------------------| - [4x]
- ------------------------------------------------------------------|
- ------------------------------------------------------------------|
- ------------------------------------------------------------------|
- ------------------------------------------------------------------|
- -00000---00000-----0-----00000-----------00000-----0-----00000----|
- -00000---00000-----0-----00000-----------00000-----0-----00000----|
PM .............................................................

let ring 3rd and 4th time through

----------------------------------------------------------------------------

[Riff 15] - [03:05] - [03:25]
- -----------------------------------------------------------------|
- -----------------------------------------------------------------|
- ---L-------R-----------------------------------------------------|
- -----------------------------------------------------------------|
- -00000---00000-----------------------------------0-0-------------|
- -00000---00000-----------0-0-------------0-0-----0-0-----0-0-----|
PM .............                                   ...

- -----------------------------------------------------------------|
- -----------------------------------------------------------------|
- -----------------------------------------------------------------|
- -----------------------------------------------------------------|
- -----------------0-0-----------------------------0-0-------------|
- -0-0-----0-0-----0-0-----0-0-------------0-0-----0-0-----0-0v----|
PM                 ...                             ...

- -----------------------------------------------------------------|
- -----------------------------------------------------------------|
- -----------------------------------------------------------------|
- -----------------------------------------------------------------|
- -----------------0-0-----------------------------0-0-------------|
- -0-0-----0-0-----0-0-----0-0-------------0-0-----0-0-----0-0-----|
PM                 ...                             ...

- -----------------------------------------------------------------|
- -----------------------------------------------------------------|
- -----------------------------------------------------------------|
- -----------------------------------------------------------------|
- -----------------0-0-----------------------------0-0-------------|
- -0-0-----0-0-----0-0-----0-0-------------0-0-----0-0-----0-0-----|
PM                 ...                             ...

the L and the R refer to which guitar plays which part in the
beginning. L is the left guitar, it comes out the left speaker :P
and so on loll i just dint wanna tab both guitars seperare just
for that little bit that they seperate lol


----------------------------------------------------------------------------|
----------------------------------------------------------------------------|
5. Creations ---------------------------------------------------------------|
----------------------------------------------------------------------------|
----------------------------------------------------------------------------|

[Riff 1, Guitar 1 & 2] - [00:00] - [00:09]
- -----------------------------------------------------------------|
- -----------------------------------------------------------------|
- -----------------------------------------------------------------|
- ---------------5-------------------------------5-----------------|
- -8-----7---8---------8---7---8---8-----7---8---------8---7---5---|
- ---0-0---0---0---0-0---0---0---0---0-0---0---0---0-0---0---0---0-|
PM   ...   .   .   ...   .   .   .   ...   .   .   ...   .   .   .
-
- -----------------------------------------------------------------|
- -----------------------------------------------------------------|
- -----------------------------------------------------------------|
- -0~--------------------------------------------------------------|
- -0~--------------------------------------------------------------|
- -0~--------------------------------------------------------------|


- -----------------------------------------------------------------|
- -----------------------------------------------------------------|
- -----------------------------------------------------------------|
- -----------------------------------------------------------------|
- -5-----5-----5---5-----5-----5---8-----8-----8---7-----7-----7---|
- ---8-8---8-8---8---8-8---8-8---8---5-5---5-5---5---5-5---5-5---5-|
PM   ...   ...   .   ...   ...   .   ...   ...   .   ...   ...   .
-
- -----------------------------------------------------------------|
- -----------------------------------------------------------------|
- -----------------------------------------------------------------|
- -8~-----------------------------\8---------------8-8-8-8-7~------|
- -8~-----------------------------\5---------------5-5-5-5-5~------|
- -8~-----------------------------\5---------------5-5-5-5-5~------|

----------------------------------------------------------------------------

[Riff 2a] - [00:09] - [00:27]
- -----------------------------------------------------------------|
- -----------------------------------------------------------------|
- -----------------------------------------------------------------|
- ---------------5-------------------------------5-----------------|
- -8-----7---8---------8---7---8---8-----7---8---------8---7---5---|
- ---0-0---0---0---0-0---0---0---0---0-0---0---0---0-0---0---0---0-|
PM   ...   .   .   ...   .   .   .   ...   .   .   ...   .   .   .

- -----------------------------------------------------------------|
- -----------------------------------------------------------------|
- -----------------------------------------------------------------|
- -----------------------------------------------------------------|
- -5-----5-----5---5-----5-----5---8-----8-----8---7-----7-----7---|
- ---8-8---8-8---8---8-8---8-8---8---5-5---5-5---5---5-5---5-5---5-|
PM   ...   ...   .   ...   ...   .   ...   ...   .   ...   ...   .

- -----------------------------------------------------------------|
- -----------------------------------------------------------------|
- -----------------------------------------------------------------|
- ---------------5-------------------------------5-----------------|
- -8-----7---8---------8---7---8---8-----7---8---------8---7---5---|
- ---0-0---0---0---0-0---0---0---0---0-0---0---0---0-0---0---0---0-|
PM   ...   .   .   ...   .   .   .   ...   .   .   ...   .   .   .

- -----------------------------------------------------------------|
- -----------------------------------------------------------------|
- -----------------------------------------------------------------|
- -----------------------------------------------------------------|
- -5-----5-----5---5-----5-----5---8-----8-----8---7-----7-----7---|
- ---8-8---8-8---8---8-8---8-8---8---5-5---5-5---5---5-5---5-5---5-|
PM   ...   ...   .   ...   ...   .   ...   ...   .   ...   ...   .


[Riff 2b] - [00:09] - [00:27]
- -----------------------------------------------------------------|
- -----------------------------------------------------------------|
- -----------------------------------------------------------------|
- -7-----5---7---8-----7---5---7---7-----5---7---8-----7---5-------|
- -------------------------------------------------------------8---|
- ---0-0---0---0---0-0---0---0---0---0-0---0---0---0-0---0---0---0-|
PM   ...   .   .   ...   .   .   .   ...   .   .   ...   .   .   .

- -----------------------------------------------------------------|
- -----------------------------------------------------------------|
- -----------------------------------------------------------------|
- ---------------------------------7-----7-----7---5-----5-----5---|
- -8-----8-----8---8-----8-----8-----------------------------------|
- ---8-8---8-8---8---8-8---8-8---8---5-5---5-5---5---5-5---5-5---5-|
PM   ...   ...   .   ...   ...   .   ...   ...   .   ...   ...   .

- -----------------------------------------------------------------|
- -----------------------------------------------------------------|
- -----------------------------------------------5-----------------|
- -7-----5---7---8-----7---5---7---7-----5---7---------7---5-------|
- -------------------------------------------------------------8---|
- ---0-0---0---0---0-0---0---0---0---0-0---0---0---0-0---0---0---0-|
PM   ...   .   .   ...   .   .   .   ...   .   .   ...   .   .   .

- -----------------------------------------------------------------|
- -----------------------------------------------------------------|
- -----------------------------------------------------------------|
- ---------------------------------7-----7-----7---5-----5-----5---|
- -8-----8-----8---8-----8-----8-----------------------------------|
- ---8-8---8-8---8---8-8---8-8---8---5-5---5-5---5---5-5---5-5---5-|
PM   ...   ...   .   ...   ...   .   ...   ...   .   ...   ...   .


----------------------------------------------------------------------------

[Riff 3, Guitar 1 & 2] - [00:27] - [00:46---------------------------| - [2x]
- ------------------------------------------------------------------|
- ------------------------------------------------------------------|
- ------------------------------------------------------------------|
- ---------------5-------------------------------5------------------|
- -8-----7---8---------8---7---8---8-----7---8---------8---7---5----|
- ---0-0---0---0---0-0---0---0---0---0-0---0---0---0-0---0---0---0--|
PM   ...   .   .   ...   .   .   .   ...   .   .   ...   .   .   .
-
- -----------------------------------------------------------------|
- -----------------------------------------------------------------|
- -----------------------------------------------------------------|
- -----------------------------------------------------------------|
- -0-0-0-0-0---------------000-0-0-000-0-0-0-----------------------|
- -0-0-0-0-0---------------000-0-0-000-0-0-0---------------0h10~---|
PM .........................................


- -----------------------------------------------------------------|
- -----------------------------------------------------------------|
- -----------------------------------------------------------------|
- -----------------------------------------------------------------|
- -5-----5-----5---5-----5-----5---8-----8-----8---7-----7-----7---|
- ---8-8---8-8---8---8-8---8-8---8---5-5---5-5---5---5-5---5-5---5-|
PM   ...   ...   .   ...   ...   .   ...   ...   .   ...   ...   .
-
- -----------------------------------------------------------------|
- -----------------------------------------------------------------|
- -----------------------------------------------------------------|
- -----------------------------------------------------------------|
- -888-8-8-8---------------888-8-8-555-5-5-5---------------5-[5b]--|
- -888-8-8-8---------------888-8-8-555-5-5-5---------------5-------|
PM .........................................................

second time around guitars switch parts

----------------------------------------------------------------------------

[Riff 4, Guitar 1 & 2] - [00:46] - [00:50]
- -----------------|
- -----------------|
- -----------------|
- -0~------\\\\\\\-|
- -0~------\\\\\\\-|
- -0~------\\\\\\\-|
-
- -----------------|
- -----------------|
- -----------------|
- -0~----------\\\-|
- -0~----------\\\-|
- -0~----------\\\-|

----------------------------------------------------------------------------

[Riff 5] - [00:50] - [00:59----------------------------------------| - [2x]
- -----------------------------------------------------------------|
- -----------------------------------------------------------------|
- -----------------------------------------------------------------|
- -----------------7-----7---7-----8----8---7---5---5--------------|
- -5-----5---5-5h8-------------5h8--------------------8-7-8-7-4h5--|
- ---0-0---0---------0-0---0---------0-0--0---0---0----------------|
PM   ...   .         ...   .         ...  .   .   .

----------------------------------------------------------------------------

[Riff 6] - [00:59] - [01:18------------------------------------------| - [2x]
- -------------------------------------------------------------------|
- -------------------------------------------------------------------|
- -------------------------------------------------------------------|
- ---------------------------------------------------10--------------|
- -5-----5-----5---5-----5-----5-----7---8-----8----------8---7------|
- ---8-8---8-8---8---8-8---8-8---8-8---8---8-8---8-8----8---8---8-8--|
PM   ...   ...   .   ...   ...   ...   .   ...   ...    .   .   ...

- -----------------------------------------------------------------|
- -----------------------------------------------------------------|
- -----------------------------------------------------------------|
- -----------------5-----5-----5---7-----7-----7---8-----8-----8---|
- -8-----8-----8---------------------------------------------------|
- ---0-0---0-0---0---0-0---0-0---0---0-0---0-0---0---0-0---0-0---0-|
PM   ...   ...   .   ...   ...   .   ...   ...   .   ...   ...   .

----------------------------------------------------------------------------

[Riff 7, Guitar 1 & 2] - [01:18] - [01:36]
- -----------------------------------------------------------------|
- -----------------------------------------------------------------|
- -----------------------------------------------------------------|
- -8~-----------------------------8~----------------------\--------|
- -8~-----------------------------8~----------------------\--------|
- -8~-----------------------------8~----------------------\--------|
-
- -----------------------------------------------------------------|
- -----------------------------------------------------------------|
- -------10--------13-----/15-----11--------------13----11----13---|
- -12----------12--------------------------------------------------|
- -----------------------------------------------------------------|
- -----------------------------------------------------------------|


- -----------------0---------------------------------0-------0-----|
- -----------------6---------------------------------6-------6-----|
- -----------------7---------------------------------7-------7-----|
- -0~--------------------------------------------------------------|
- -0~--------------------------0---0-----0-----0-------------------|
- -0~--------------------------0---0-----0-----0-------------------|
PM                             .................
-
- -----------------17----------------------------------------------|
- -----------------------------------------------------------------|
- -14------------------------------14------------------------------|
- -------------------------------------------------17----15----14--|
- ---------------------------------------12/---15------------------|
- -----------------------------------------------------------------|

----------------------------------------------------------------------------

[Riff 8, Guitar 1 & 2] - [01:36] - [01:54]
- -----------------------------------------------------------------|
- -----------------------------------------------------------------|
- -----------------------------------------------------------------|
- -----------------------------------------------------------------|
- -----------------------------------------------------------------|
- -8-8-8-8-8-8-8-8-8-8-8-8-101010105-5-5-5-5-5-5-5-5-5-5-5-7-7-7-7-|
-
- ------------------------------------------------------------------|
- ------------------------------------------------------------------|
- -1717171717171717171717171919191915151515151515151515151517171717-|
- -x-x-x-x-x-x-x-x-x-x-x-x-x-x-x-x-x-x-x-x-x-x-x-x-x-x-x-x-x-x-x-x--|
- -1515151515151515151515151717171713131313131313131313131315151515-|
- ------------------------------------------------------------------|


- -----------------------------------------------------------------|
- -----------------------------------------------------------------|
- -----------------------------------------------------------------|
- -----------------------------------------------------------------|
- -----------------------------------------------------------------|
- -0-0-0-0-0-0-0-0-2-2-2-2-2-2-2-2-3-3-3-3-3-3-3-3-5-5-5-5-7-7-7-7-|
-
- -----------------------------------------------------------------|
- -----------------------------------------------------------------|
- -141414141414141414141414121212121414141414141414101010109-9-9-9-|
- -x-x-x-x-x-x-x-x-x-x-x-x-x-x-x-x-x-x-x-x-x-x-x-x-x-x-x-x-x-x-x-x-|
- -1212121212121212121212121010101012121212121212128-8-8-8-7-7-7-7-|
- -----------------------------------------------------------------|

----------------------------------------------------------------------------

[Riff 9] - [01:54] - [01:55]
- -----------------|
- -----------------|
- -----------------|
- -----------------|
- -8-----7---8-----|
- ---0-0---0---0-0-|
PM   ...   .   ...

----------------------------------------------------------------------------

[Riff 2a + 2b] - [01:55] - [02:14]

[Riff 10, Guitar 1 & 2] - [02:14] - [02:23]
- -----------------------------------------------------------------|
- -----------------------------------------------------------------|
- -----------------------------------------------------------------|
- -----------------------------------------------------------------|
- -0---00000-0-0-0-0-0-0-0-0-0-0-0-0-0-0-0-0-0-0-0-0---00000-0-0-0-|
- -0---00000-0-0-0-0-0-0-0-0-0-0-0-0-0-0-0-0-0-0-0-0---00000-0-0-0-|
PM ...............................................................
-
- -----------------------------------------------------------------|
- -----------------------------------------------------------------|
- -----------------------------------------------------------------|
- -----------------------------------------------------------------|
- -0---00000-0-------------0-0-0-0-----0-0-0-0-----0---00000-0-----|
- -0---00000-0-------------0-0-0-0-----0-0-0-0-----0---00000-0-----|
PM ...........................................................


- -----------------------------------------------------------------|
- -----------------------------------------------------------------|
- -----------------------------------------------------------------|
- -----------------------------------------------------------------|
- -0---00000-0-0-0-0-0-0-0-0-0-0-0-0-0-0-0-0-0-0-0-0---00000-0-----|
- -0---00000-0-0-0-0-0-0-0-0-0-0-0-0-0-0-0-0-0-0-0-0---00000-0-----|
PM ...........................................................
-
- -----------------------------------------------------------------|
- -----------------------------------------------------------------|
- -----------------------------------------------------------------|
- -----------------------------------------------------------------|
- -0---00000-0-------------0-0-0-0-----0-0-0-0-----0---00000-0-----|
- -0---00000-0-------------0-0-0-0-----0-0-0-0-----0---00000-0-----|
PM ...........................................................


----------------------------------------------------------------------------

[Riff 11] - [02:23] - [02:32----------------------------------------| - [2x]
- ------------------------------------------------------------------|
- ------------------------------------------------------------------|
- ------------------------------------------------------------------|
- ------------------------------------------------------------------|
- -0---00000-0-------------0-0-0-0-----0-0-0-0-----0---00000-0------|
- -1---11111-1-------------1-1-1-1-----1-1-1-1-----1---11111-1------|
PM ...........................................................

----------------------------------------------------------------------------

[Riff 12] - [02:32] - [02:47----------------------------------------| - [2x]
- ------------------------------------------------------------------|
- ------------------------------------------------------------------|
- ------------------------------------------------------------------|
- ------------------------------------------------------------------|
- -0---00000-0-------------------------------------0---00000-0------|
- -1---11111-1-------------1-1-1-1-----1-1-1-1-----1---11111-1------|
PM ...........                                     ...........


----------------------------------------------------------------------------|
----------------------------------------------------------------------------|
6. Gears -------------------------------------------------------------------|
----------------------------------------------------------------------------|
----------------------------------------------------------------------------|

[Riff 1a] - [00:00] - [00:47--------------------------------------| - [6x]
- ----------------------------------------------------------------|
- ----------------------------------------------------------------|
- -9h10p9---------------------------------------------------------|
- --------10-10/12------10h12p10---\7-7-------7/10----------------|
- -------------------------------------------------10-----10/12---|
- ----------------------------------------------------------------|

[Riff 1b] - [00:00] - [00:47--------------------------------------| - [6x]
- ----------------------------------------------------------------|
- ----------------------------------------------------------------|
- -12h14p12-------------------------------------------------------|
- ----------14-14/15----14h15p14---\10-10-----10/14---------------|
- --------------------------------------------------13----13/15---|
- ----------------------------------------------------------------|

[Riff 2] - [00:16] - [00:31---------------| - [2x]
- ----------------------------------------|
- ----------------------------------------|
- ----------------------------------------|
- -0-----------10--7-------5---------7----|
- -0-----------10--7-------5---------7----|
- -0-----------10--7-------5---------7----|

[Riff 3] - [00:31] - [00:47-----------------------------------------| - [2x]
- ------------------------------------------------------------------|
- ------------------------------------------------------------------|
- ------------------------------------------------------------------|
- ------------------------------------------------------------------|
- ------------------------------------------------------------------|
- -0---0-0-0-0-0-0-0-0-0-0-0-8-8-8-0---0-0-0-0-0-0-0-0-0-0-8-7-5-7--|
PM     .....................           ...................

- ------------------------------------------------------------------|
- ------------------------------------------------------------------|
- ------------------------------------------------------------------|
- ------------------------------------------------------------------|
- ------------------------------------------------------------------|
- -5---5-5-5-5-5-5-5-5-5-5-5-5-5-5-8---8-8-8-8-8-8-10--101010101010-|
PM     ...........................     ...........     ............

----------------------------------------------------------------------------

[Riff 4a] - [00:47] - [00:55]
- ----------------------------------------------------|
- ----------------------------------------------------|
- ----------------------------------------------------|
- -0~-----/7--5--7-7/10--8---0~-----/7--5-------------|
- -0~------------------------0~------------8-7---7/8--|
- -0~------------------------0~-----------------------|

[Riff 4b] - [00:47] - [00:55]
- ----------------------------------------------------|
- ----------------------------------------------------|
- ----------------------------------------------------|
- -0~------------------------0~-----------------------|
- -0~-----/8--7--8-8/12--10--0~-----/8--7--5-4---4/5--|
- -0~------------------------0~-----------------------|

----------------------------------------------------------------------------

[Riff 5, Guitar 1 & 2] - [00:55] - [00:59]
- -----------------------------------------------------------------|
- -----------------------------------------------------------------|
- -----------------------------------------------------------------|
- -----------------------------------------------------------------|
- -8-----------8---7-------4---5-------5---4-------5-------4-------|
- ---0-0-0-0-0---0---0-0-0---0---0-0-0---0---0-0-0---8-8-8---7-7-7-|
PM   .........   .   .....   .   .....   .   .....   .....   .....
-
- -----------------------------------------------------------------|
- -----------------------------------------------------------------|
- -------------------------------------------------3-------2-------|
- -0-----------------------0-0-0-0-0-----------------5-5-5---4-4-4-|
- -0-----------------------0-0-0-0-0-------------------------------|
PM .................................                 .....   .....

----------------------------------------------------------------------------

[Riff 6] - [00:59] - [01:02]
- -----------------------------------------------------------------|
- -----------------------------------------------------------------|
- -----------------------------------------------------------------|
- -----------------------------------------------------------------|
- -8-----------8---7-------4---5-------5---4-------5-------4-------|
- ---0-0-0-0-0---0---0-0-0---0---0-0-0---0---0-0-0---8-8-8---------|
PM   .........   .   .....   .   .....   .   .....   .....

----------------------------------------------------------------------------

[Riff 7, Guitar 1 & 2] - [01:02] - [01:10---------------------------| - [2x]
- ------------------------------------------------------------------|
- ------------------------------------------------------------------|
- ------------------------------------------------------------------|
- ------------------------------------------------------------------|
- -8-----------8---7-------4---5-------5---4-------5-------4--------|
- ---0-0-0-0-0---0---0-0-0---0---0-0-0---0---0-0-0---8-8-8---7-7-7--|
PM   .........   .   .....   .   .....   .   .....   .....   .....
-
- -----------------------------------------------------------------|
- -----------------------------------------------------------------|
- -----------------------------------------------------------------|
- -7-----------7---5-------------------------------3-------2-------|
- -------------------------7---8-------8---7---------5-5-5---2-2-2-|
- ---0-0-0-0-0---0---0-0-0---0---0-0-0---0---0-0-0-----------------|
PM   .........   .   .....   .   .....   .   .....   .....   .....

----------------------------------------------------------------------------

[Riff 8] - [01:10] - [01:18]
- -------------------------------------------------------------------|
- -------------------------------------------------------------------|
- -------------------------------------------------------------------|
- ----------------------------------------------------8-8------------|
- -8-----------8---10-----------10---12-----------1212----1212101212-|
- ---8-8-8-8-8---8----8-8-8-8-8----8----8-8-8-8-8--------------------|
PM   .........   .    .........    .    .........

- ------------------------------------------------------------------|
- ------------------------------------------------------------------|
- ------------------------------------------------------------------|
- --------------------------------------------------10108-8-7-7-8-8-|
- -7-----------7---8-----------8---10-----------1010----------------|
- ---7-7-7-7-7---7---7-7-7-7-7---7----7-7-7-7-7---------------------|
PM   .........   .   .........   .    .........

----------------------------------------------------------------------------

[Riff 9] - [01:18] - [01:34]
- -------------------------------------------------------------------------|
- -------------------------------------------------------------------------|
- -------------------------------------------------------------------------|
- -------------------------------------------------------------------------|
- -0000--0000----00000-0---------------------------------------------------|
- -0000--0000----00000-0/8--7--5---5555----555555/8--7--5-3--5--2---222h3--|
PM .....................           ...     ......

- -------------------------------------------------------------------------|
- -------------------------------------------------------------------------|
- -------------------------------------------------------------------------|
- -------------------------------------------------------------------------|
- -0000----------00000-0---------------------------------------------------|
- -0000--0v------00000-0/8--7--5---5555----555555/8--7--5-3--5--2---222h3--|
PM ....          .......           ...     ......

[Riff 10a] - [01:34] - [01:49-----------------------------------------------| - [2x]
- --------------------------------------------------------------------------|
- --------------------------------------------------------------------------|
- --------------------------------------------------------------------------|
- --------------------------------------------------------------------------|
- -0000--0000----00000-0----------------------------------------------------|
- -0000--0000----00000-0/8--7--5---5555----555555/8--7--5-3--5--2---222h3---|
PM .....................           ...     ......

[Riff 10b] - [01:34] - [01:49-----------------------------------------------| - [2x]
- --------------------------------------------------------------------------|
- --------------------------------------------------------------------------|
- --------------------------------------------------------------------------|
- --------------------------------------------------------------------------|
- -0000--0000----00000-0----------------------------------------------------|
- -0000--0000----00000-0/12-10-8---8888----888888/12-10-8-7--8--5---555h7---|
PM .....................           ...     ......

----------------------------------------------------------------------------

[Riff 11] - [01:49] - [01:53]
- -----------------|
- -----------------|
- -----------------|
- -0~--------------|
- -0~--------------|
- -0~----------12\-|

----------------------------------------------------------------------------

[Riff 12] - [01:53] - [02:24--------------------------------------------| - [2x]
- ----------------------------------------------------------------------|
- ----------------------------------------------------------------------|
- ----------------------------------------------------------------------|
- ----------------------------------------------------------------------|
- ----------------------------------------------------------------------|
- -0(16x)-7(16x)-8(16x)-5(12x)-1(4x)-0(16x)-3(16x)-5(16x)-2(12x)-3(4x)--|

palm mute second time through

----------------------------------------------------------------------------

[Riff 13] - [02:24] - [02:32----------------------------------------| - [2x]
- ------------------------------------------------------------------|
- ------------------------------------------------------------------|
- ------------------------------------------------------------------|
- ------------------------------------------------------------------|
- -0000----0000----0-0-0-0-0000--------0000--------0-0-0-0-0000-----|
- -0000----0000----0-0-0-0-0000--------0000--------0-0-0-0-0000-----|
PM ............................................................

[Riff 14, Guitar 1 & 2] - [02:32] - [02:40]
- -----------------------------------------------------------------|
- -----------------------------------------------------------------|
- -----------------------------------------------------------------|
- -----------------------------------------------------------------|
- -0000----0000----0-0-0-0-0-----------0000--------0-0-0-0-0-------|
- -0000----0000----0-0-0-0-0-0---------0000--------0-0-0-0-0-0-----|
PM .........................           .....................
-
- -----------------------------------------------------------------|
- -----------------------------------------------------------------|
- -----------------------------------------------------------------|
- -----------------------------------------------------------------|
- -0000----0000----0-0-0-0-0-----------0000--------0-0-0-0-0-------|
- -0000----0000----0-0-0-0-0-0---------0000--------0-0-0-0-0-0-----|
PM .........................           .....................


- -----------------------------------------------------------------|
- -----------------------------------------------------------------|
- -----------------------------------------------------------------|
- -----------------------------------------------------------------|
- -0000----0000----0-0-0-0-0-----------0000--------0-0-0-0-0-------|
- -0000----0000----0-0-0-0-0-3---------0000--------0-0-0-0-0-3-----|
PM .........................           .....................
-
- -----------------------------------------------------------------|
- -----------------------------------------------------------------|
- -----------------------------------------------------------------|
- -----------------------------------------------------------------|
- -0000----0000----0-0-0-0-0-----------0000--------0-0-0-0-0-------|
- -0000----0000----0-0-0-0-0-0---------0000--------0-0-0-0-0-0-----|
PM .........................           .....................

----------------------------------------------------------------------------

[Riff 15] - [02:40] - [02:41]
- ---------|
- ---------|
- ---------|
- ---------|
- -0-------|
- -0-------|
PM .

----------------------------------------------------------------------------

[Riff 13] - [02:41] - [02:49] - [2x]

[Riff 16] - [02:49] - [02:57]
- -----------------|
- -----------------|
- -----------------|
- -0---5---10--7---|
- -0---3---8---5---|
- -0---3---8---5---|

----------------------------------------------------------------------------

[Riff 17] - [02:57] - [03:12]
- -----------------------------------------------------------------|
- -----------------------------------------------------------------|
- -----------------------------------------------------------------|
- -----------------------------------------------------------------|
- -0-0-0-0-0-0---------0-0-----0-0-----3-3-3-3-3-3-3-3-3-3-3-3-3-3-|
- -0-0-0-0-0-0---------0-0-----0-0-----3-3-3-3-3-3-3-3-3-3-3-3-3-3-|
PM ...............................................................

- -----------------------------------------------------------------|
- -----------------------------------------------------------------|
- -----------------------------------------------------------------|
- -----------------------------------------------------------------|
- -8-8-8-8-8-8---------8-8-----8-8-----5-5-5-5-5-5-5-5-5-5-5-5-5-5-|
- -8-8-8-8-8-8---------8-8-----8-8-----5-5-5-5-5-5-5-5-5-5-5-5-5-5-|
PM ...............................................................

- -----------------------------------------------------------------|
- -----------------------------------------------------------------|
- -----------------------------------------------------------------|
- -----------------------------------------------------------------|
- -0-0-0-0-0-0---------0-0-----0-0-----3-3-3-3-3-3-3-3-3-3-3-3-3-3-|
- -0-0-0-0-0-0---------0-0-----0-0-----3-3-3-3-3-3-3-3-3-3-3-3-3-3-|
PM ...............................................................

- -----------------------------------------------------------------|
- -----------------------------------------------------------------|
- -----------------------------------------------------------------|
- -------------------------------------------------8-------8-------|
- -8-8-8-8-8-8---------8-8-----8-8-----5-5-5-5-5-5-5-------5-------|
- -8-8-8-8-8-8---------8-8-----8-8-----5-5-5-5-5-5-5-------5-------|
PM ...............................................

----------------------------------------------------------------------------

[Riff 18] - [03:12] - [03:36----------------------------------------| - [3x]
- ------------------------------------------------------------------|
- ------------------------------------------------------------------|
- ------------------------------------------------------------------|
- ------------------------------------------------------------------|
- ------------------------------------------------------------------|
- -0-0-0-0-0-0---------0-0-----0-0-----3-3-3-3-3-3-3-3-3-3-3-3-3-3--|

- -----------------------------------------------------------------|
- -----------------------------------------------------------------|
- -----------------------------------------------------------------|
- -----------------------------------------------------------------|
- -----------------------------------------------------------------|
- -8-8-8-8-8-8---------8-8-----8-8-----5-5-5-5-5-5-5-5-5-5-5-5-5-5-|

[Riff 16] - [03:36] - [04:02] - [2x]


----------------------------------------------------------------------------|
----------------------------------------------------------------------------|
7. Colossal ----------------------------------------------------------------|
----------------------------------------------------------------------------|
----------------------------------------------------------------------------|

[Riff 1a, Guitar 1 & 2] - [00:00] - [00:10]
- -----------------------------------------------------------------|
- -----------------------------------------------------------------|
- -----------------------------------------------------------------|
- -----------------------------------------------------------------|
- -----5---5-----5---5-----5---5-------5---5-----5---5-----5---5---|
- -0-0---0---0-0---0---0-0---0---0-0-0---0---0-0---0---0-0---0---0-|
PM ...   .   ...   .   ...   .   .....   .   ...   .   ...   .   .
-
- ------------------------------------------------------------------|
- ------------------------------------------------------------------|
- ------------------------------------------------------------------|
- ------------------------------------------------------------------|
- -000-000---------------------------------------------00-0-000-000-|
- -000-000---------------------------------------------11-1-111-111-|
PM ................................................................


- -----------------------------------------------------------------|
- -----------------------------------------------------------------|
- -----------------------------------------------------------------|
- -----------------------------------------------------------------|
- -----5---5-----5---5-----5---5-------5---5-----5---5-------------|
- -0-0---0---0-0---0---0-0---0---0-0-0---0---0-0---0---0-0---------|
PM ...   .   ...   .   ...   .   .....   .   ...   .   ...
-
- ------------------------------------------------------------------|
- ------------------------------------------------------------------|
- ------------------------------------------------------------------|
- ------------------------------------------------------------------|
- -000-000----------------------------------------------------------|
- -000-000----------------------------------------------------------|
PM .......

[Riff 1b] - [00:05] - [00:10]
- -----------------------------------------------------------------|
- -----------------------------------------------------------------|
- -----------------------------------------------------------------|
- -----------------------------------------------------------------|
- -----8---8-----8---8-----8---8-------8---8-----8---8-----8---8---|
- -0-0---0---0-0---0---0-0---0---0-0-0---0---0-0---0---0-0---0---0-|
PM ...   .   ...   .   ...   .   .....   .   ...   .   ...   .   .

- -----------------------------------------------------------------|
- -----------------------------------------------------------------|
- -----------------------------------------------------------------|
- -----------------------------------------------------------------|
- -----8---8-----8---8-----8---8-------8---8-----8---8-------------|
- -0-0---0---0-0---0---0-0---0---0-0-0---0---0-0---0---0-0---------|
PM ...   .   ...   .   ...   .   .....   .   ...   .   ...

----------------------------------------------------------------------------

[Riff 2] - [00:10] - [00:19---------| - [4x]
- ----------------------------------|
- ----------------------------------|
- ----------------------------------|
- ----------------------------------|
- -0---00000-----------00000-0-0-0--|
- -1---11111-----------11111-1-1-1--|
PM ...............................

----------------------------------------------------------------------------

[Riff 3] - [00:19] - [00:29---------| - [4x]
- ----------------------------------|
- ----------------------------------|
- ----------------------------------|
- ----------------------------------|
- -0---0000------------00000-0-0-0--|
- -0---00000-----------00000-0-0-0--|
PM ...............................

----------------------------------------------------------------------------

[Riff 4] - [00:29] - [00:48-------------| - [2x]
- --------------------------------------|
- --------------------------------------|
- --------------------------------------|
- --------------------------------------|
- -----10---10/12---10---8-----7---8----|
- -0-0----0-------0----0---0-0---0---0--|
PM ...    .       .    .   ...   .   .

- -------------------------------------|
- -------------------------------------|
- -------------------------------------|
- -------------------------------------|
- -----10---10/12---10---8-----7---8---|
- -0-0----0-------0----0---0-0---0---0-|
PM ...    .       .    .   ...   .   .

- ---------------------------------------------|
- ---------------------------------------------|
- ---------------------------------------------|
- ---------------------------------------------|
- -12-----12---12---12---12-----12---12---12---|
- ----8-8----8----8----8----8-8----8----8----8-|
PM    ...    .    .    .    ...    .    .    .

- ------------------------------------|
- ------------------------------------|
- ------------------------------------|
- -10-----10---10---8-----8---7---7---|
- ------------------------------------|
- ----7-7----7----7---7-7---7---7---7-|
PM    ...    .    .   ...   .   .   .

----------------------------------------------------------------------------

[Riff 5] - [00:48] - [01:07]
- ----------------------------------------|
- ----------------------------------------|
- ----------------------------------------|
- ----------------------------------------|
- -----10---10-----10---10-----10---10/12-|
- -8-8----8----8-8----8----8-8----8-------|
PM ...    .    ...    .    ...    .

- -----------------------------------------------|
- -----------------------------------------------|
- -----------------------------------------------|
- -----------------------------------------------|
- -------12----12-------12----12-------12----12\-|
- -10-10----10----10-10----10----10-10----10-----|
PM .....    ..    .....    ..    .....    ..

- ---------------------------------|
- ---------------------------------|
- ---------------------------------|
- ---------------------------------|
- -----8---8-----8---8-----8---8\--|
- -7-7---7---7-7---7---7-7---7-----|
PM ...   .   ...   .   ...   .

- -----------------------------------------------|
- -----------------------------------------------|
- -----------------------------------------------|
- -----------------------------------------------|
- -------15----15-------13----13-------12----12\-|
- -12-12----12----12-12----12----12-12----12-----|
PM .....    ..    .....    ..    .....    ..

- ----------------------------------------|
- ----------------------------------------|
- ----------------------------------------|
- ----------------------------------------|
- -----10---10-----10---10-----10---10/12-|
- -8-8----8----8-8----8----8-8----8-------|
PM ...    .    ...    .    ...    .

- -----------------------------------------------|
- -----------------------------------------------|
- -----------------------------------------------|
- -----------------------------------------------|
- -------12----12-------12----12-------12----12\-|
- -10-10----10----10-10----10----10-10----10-----|
PM .....    ..    .....    ..    .....    ..

- ---------------------------------|
- ---------------------------------|
- ---------------------------------|
- ---------------------------------|
- -----8---8-----8---8-----8---8\--|
- -7-7---7---7-7---7---7-7---7-----|
PM ...   .   ...   .   ...   .

- ---------------------------------|
- ---------------------------------|
- ---------------------------------|
- -3-----------------------5-------|
- -3---3-3-3-3-3-3-5-5-5-5-5-------|
- -3---3-3-3-3-3-3-5-5-5-5-5-------|
PM     ...................

----------------------------------------------------------------------------

[Riff 6a] - [01:07] - [01:27----------------------------------------| - [2x]
- ------------------------------------------------------------------|
- ------------------------------------------------------------------|
- ------------------------------------------------------------------|
- ------------------------------------------------------------------|
- -0---0-0-0-----------0-0-0-0-0-0-0---0-0-0-----------0-0-0-0-0-0--|
- -0---0-0-0-----------0-0-0-0-0-0-0---0-0-0-----------0-0-0-0-0-0--|
PM ...............................................................

- -----------------------------------------------------------------|
- -----------------------------------------------------------------|
- -----------------------------------------------------------------|
- -----------------------------------------------------------------|
- -8---8-8-8-----------8-8-8-8-8-8-5---5-5-5-----------5-5-5-5-5-5-|
- -8---8-8-8-----------8-8-8-8-8-8-5---5-5-5-----------5-5-5-5-5-5-|
PM ...............................................................

[Riff 6b] - [01:07] - [01:27------------------| - [2x]
- --------------------------------------------|
- -----10-----------13---11---10h11p10--------|
- ----------10/12----------------------10/12--|
- -0-0----0-------0----0----0-----------------|
- --------------------------------------------|
- --------------------------------------------|
PM ...    .       .    .    .

- -------------------------------------------|
- -----10-----------13---11---10h11p10-------|
- ----------10/12----------------------10/12-|
- -0-0----0-------0----0----0----------------|
- -------------------------------------------|
- -------------------------------------------|
PM ...    .       .    .    .

- -------------------------------------------|
- -----10-----------13---11---10h11p10-------|
- ----------10/12----------------------10/12-|
- -0-0----0-------0----0----0----------------|
- -------------------------------------------|
- -------------------------------------------|
PM ...    .       .    .    .

- -----------------------------------------|
- -----10---10\8--------10------10---------|
- -----------------10------10--------10-10-|
- -0-0----0------0----0-------0----0-------|
- -----------------------------------------|
- -----------------------------------------|
PM ...    .      .    .       .    .

----------------------------------------------------------------------------

[Riff 7] - [01:27] - [01:28]
- -----------------|
- -----------------|
- -----------------|
- -7-----8---------|
- ---6-5---5\------|
- -----------------|

----------------------------------------------------------------------------

[Riff 8] - [01:28] - [01:47]
- -----------------------------------------------------------------|
- -----------------------------------------------------------------|
- -----------------------------------------------------------------|
- -----------------------------------------------------------------|
- -0-0-0-0-----0-------------------00000---------------------------|
- -0-0-0-0-----0-------------------00000-------0v------0-0---0-0---|
PM .....................................

- -----------------------------------------------------------------|
- -----------------------------------------------------------------|
- -----------------------------------------------------------------|
- -------------------------------------------------7-----8---------|
- -0-0-0-0-----0-------------------00000---00000-----6-5---5\------|
- -0-0-0-0-----0-------------------00000---00000-------------------|
PM .............................................

- -----------------------------------------------------------------|
- -----------------------------------------------------------------|
- -----------------------------------------------------------------|
- -----------------------------------------------------------------|
- -0-0-0-0-----0-------------------00000---------------------------|
- -0-0-0-0-----0-------------------00000-------0v------0-0---0-0-0-|
PM .....................................

- -----------------------------------------------------------------|
- -----------------------------------------------------------------|
- -----------------------------------------------------------------|
- -----------------------------------------------------------------|
- -0-0-0-0-----0-------------------00000---00000---0---------------|
- -0-0-0-0-----0-------------------00000---00000-----1-0-1-0-------|
PM .............................................

----------------------------------------------------------------------------

[Riff 9a] - [01:47] - [02:06]
- -----------------------------------------------------------------|
- -----------------------------------------------------------------|
- -----------------------------------------------------------------|
- -----------------------------------------------------------------|
- -0-0---0---0-0-------------------0-0-0-0-0-0-0-0-----------------|
- -0-0---0---0-0-------------------0-0-0-0-0-0-0-0-----------------|
PM ...............................................

- -----------------------------------------------------------------|
- -----------------------------------------------------------------|
- -----------------------------------------------------------------|
- -----------------------------------------------------------------|
- -0-0---0---0-0-------------------0-0-0-0-0-0-0-0-0---------------|
- -0-0---0---0-0-------------------0-0-0-0-0-0-0-0---1-0-1-0-------|
PM ...............................................

- -----------------------------------------------------------------|
- -----------------------------------------------------------------|
- -----------------------------------------------------------------|
- -----------------------------------------------------------------|
- -0-0---0---0-0-------------------0-0-0-0-0-0-0-0-----------------|
- -0-0---0---0-0-------------------0-0-0-0-0-0-0-0-----------------|
PM ...............................................

- -----------------------------------------------------------------|
- -----------------------------------------------------------------|
- -----------------------------------------------------------------|
- ---------------------------------8-8-8-8-8-8-8-8-5-5-5-5-7-7-7-7-|
- -0-0---0---0-0-------------------8-8-8-8-8-8-8-8-5-5-5-5-7-7-7-7-|
- -0-0---0---0-0-------------------8-8-8-8-8-8-8-8-5-5-5-5-7-7-7-7-|

[Riff 9b] - [01:57] - [02:06]
- ------------------------------------------------------------------|
- ------------------------------------------------------------------|
- ---------------------------------14141414141414141010101012121212-|
- ---------------------------------x-x-x-x-x-x-x-x-x-x-x-x-x-x-x-x--|
- ---------------------------------12121212121212128-8-8-8-10101010-|
- ------------------------------------------------------------------|

----------------------------------------------------------------------------

[Riff 10, Guitar 1 & 2] - [02:06] - [02:21]
- ------------------------------------------------------------------|
- ------------------------------------------------------------------|
- ------------------------------------------------------------------|
- -0-------------------------------8-8-8-8-8-8-8-8-5-5-5-5-10101010-|
- -0---000-000-000-000-000-000-000-8-8-8-8-8-8-8-8-5-5-5-5-10101010-|
- -0---000-000-000-000-000-000-000-8-8-8-8-8-8-8-8-5-5-5-5-10101010-|
PM     ...........................
-
- ------------------------------------------------------------------|
- ------------------------------------------------------------------|
- ---------------------------------14141414141414141010101017171717-|
- ---------------------------------x-x-x-x-x-x-x-x-x-x-x-x-x-x-x-x--|
- ---------------------------------12121212121212128-8-8-8-15151515-|
- ------------------------------------------------------------------|


- ------------------------------------------------------------------|
- ------------------------------------------------------------------|
- ------------------------------------------------------------------|
- -0-------------------------------8-8-8-8-8-8-8-8-5-5-5-5-7-7-7-7--|
- -0---0-0-0-0-0-0-0-0-0-0-0-0-0-0-8-8-8-8-8-8-8-8-5-5-5-5-7-7-7-7--|
- -0---0-0-0-0-0-0-0-0-0-0-0-0-0-0-8-8-8-8-8-8-8-8-5-5-5-5-7-7-7-7--|
PM     ...........................
-
- ------------------------------------------------------------------|
- ------------------------------------------------------------------|
- ---------------------------------14141414141414141010101012121212-|
- ---------------------------------x-x-x-x-x-x-x-x-x-x-x-x-x-x-x-x--|
- ---------------------------------12121212121212128-8-8-8-10101010-|
- ------------------------------------------------------------------|


- ------------------------------------------------------------------|
- ------------------------------------------------------------------|
- ------------------------------------------------------------------|
- -0-------------------------------8-8-8-8-8-8-8-8-101010107-7-7-7--|
- -0---000-000-000-000-000-000-000-8-8-8-8-8-8-8-8-101010107-7-7-7--|
- -0---000-000-000-000-000-000-000-8-8-8-8-8-8-8-8-101010107-7-7-7--|
PM     ...........................
-
- ------------------------------------------------------------------|
- ------------------------------------------------------------------|
- ---------------------------------14141414141414141717171714141414-|
- ---------------------------------x-x-x-x-x-x-x-x-x-x-x-x-x-x-x-x--|
- ---------------------------------12121212121212121515151512121212-|
- ------------------------------------------------------------------|

----------------------------------------------------------------------------

[Riff 11a] - [02:21] - [02:40---------------------------------------| - [4x]
- ------------------------------------------------------------------|
- ------------------------------------------------------------------|
- ------------------------------------------------------------------|
- -0-----------------------------5--------------7---------5---------|
- -0-------------5---8---------------7--------------8-------8-7-8---|
- -0---0-0-0-0-0---0---0-0-0-0-0---0---0-0-0-0-0--0---0-0-----------|
PM     .........   .   .........   .   .........  .   ...

[Riff 11b] - [02:30] - [02:40---------------------------------------------| - [2x]
- ------------------------------------------------------------------------|
- ------------------------------------------------------------------------|
- ------------------------------------------------------------------------|
- -0------------------------------8----------------10---------8-----------|
- -0-------------8---12---------------10----------------12------10-12-10--|
- -0---0-0-0-0-0---0----0-0-0-0-0---0----0-0-0-0-0----0----0-0------------|
PM     .........   .    .........   .    .........    .    ...

----------------------------------------------------------------------------

[Riff 12] - [02:40] - [02:42]
- ------------------|
- ------------------|
- ------------------|
- -0~------\\\\\\\\-|
- -0~------\\\\\\\\-|
- -0~------\\\\\\\\-|

----------------------------------------------------------------------------

[Riff 13] - [02:42] - [03:01]
- ----------------------------------------|
- ----------------------------------------|
- ----------------------------------------|
- ----------------------------------------|
- -----10---10-----10---10-----10---10/12-|
- -8-8----8----8-8----8----8-8----8-------|
PM ...    .    ...    .    ...    .

- -----------------------------------------------|
- -----------------------------------------------|
- -----------------------------------------------|
- -----------------------------------------------|
- -------12----12-------12----12-------12----12\-|
- -10-10----10----10-10----10----10-10----10-----|
PM .....    ..    .....    ..    .....    ..

- ---------------------------------|
- ---------------------------------|
- ---------------------------------|
- ---------------------------------|
- -----8---8-----8---8-----8---8\--|
- -7-7---7---7-7---7---7-7---7-----|
PM ...   .   ...   .   ...   .

- -----------------------------------------------|
- -----------------------------------------------|
- -----------------------------------------------|
- -----------------------------------------------|
- -------15----15-------13----13-------12----12\-|
- -12-12----12----12-12----12----12-12----12-----|
PM .....    ..    .....    ..    .....    ..

- ----------------------------------------|
- ----------------------------------------|
- ----------------------------------------|
- ----------------------------------------|
- -----10---10-----10---10-----10---10/12-|
- -8-8----8----8-8----8----8-8----8-------|
PM ...    .    ...    .    ...    .

- -----------------------------------------------|
- -----------------------------------------------|
- -----------------------------------------------|
- -----------------------------------------------|
- -------12----12-------12----12-------12----12\-|
- -10-10----10----10-10----10----10-10----10-----|
PM .....    ..    .....    ..    .....    ..

- ---------------------------------|
- ---------------------------------|
- ---------------------------------|
- ---------------------------------|
- -----8---8-----8---8-----8---8\--|
- -7-7---7---7-7---7---7-7---7-----|
PM ...   .   ...   .   ...   .

- ---------------------------------|
- ---------------------------------|
- ---------------------------------|
- -3-------------------------------|
- -3---3-3-3-3-3-3-5-5-5-5-5-5-5-5-|
- -3---3-3-3-3-3-3-5-5-5-5-5-5-5-5-|
PM     ...........................

----------------------------------------------------------------------------

[Riff 14a] - [03:01] - [03:11]
- ------------------------------------------------------------------|
- ------------------------------------------------------------------|
- ------------------------------------------------------------------|
- -----7-----------7-----------7-------7-----------7-------10-------|
- -------8-7-8-------8-7-8-------8-------8-7-8-------8-7-8----8-7-8-|
- -0-0---------0-0---------0-0-----0-0---------0-0------------------|
PM ...         ...         ...     ...         ...

- ------------------------------------------------------------------|
- ------------------------------------------------------------------|
- ------------------------------------------------------------------|
- -----7-----------7-----------7-------7-----------7-------10-------|
- -------8-7-8-------8-7-8-------8-------8-7-8-------8-7-8----------|
- -0-0---------0-0---------0-0-----0-0---------0-0------------------|
PM ...         ...         ...     ...         ...


[Riff 14b] - [03:06] - [03:11]
- -------------------------------------------|
- -------------------------------------------|
- -------------------------------------------|
- -----10--------------10--------------10----|
- --------12-10-12--------12-10-12--------12-|
- -0-0-------------0-0-------------0-0-------|
PM ...             ...             ...

- -------------------------------------|
- -------------------------------------|
- -------------------------------------|
- -----10--------------10----------14--|
- --------12-10-12--------12-10-12-----|
- -0-0-------------0-0-----------------|
PM ...             ...

----------------------------------------------------------------------------

[Riff 6a + 6b] - [03:11] - [03:30] - [2x]

[Riff 15a] - [03:30] - [03:38]
- ------------------------------------------------------------------|
- ------------------------------------------------------------------|
- ------------------------------------------------------------------|
- -----7-----------7-----------7-------7-----------7-------10-------|
- -------8-7-8-------8-7-8-------8-------8-7-8-------8-7-8----8-7-8-|
- -0-0---------0-0---------0-0-----0-0---------0-0------------------|
PM ...         ...         ...     ...         ...

[Riff 15b] - [03:30] - [03:38]
- -------------------------------------------------------------------------|
- -------------------------------------------------------------------------|
- -------------------------------------------------------------------------|
- -------------------------------------------------10----------14----------|
- -0-0---------0-0---------0-0-----0-0---------0-0----12-10-12----10-12-10-|
- -0-0---------0-0---------0-0-----0-0---------0-0-------------------------|
PM ...............................................


----------------------------------------------------------------------------|
----------------------------------------------------------------------------|
8. We Have Fallen ----------------------------------------------------------|
----------------------------------------------------------------------------|
----------------------------------------------------------------------------|

[Riff 1a] - [00:02] - [00:20--------| - [8x]
- ----------------------------------|
- ----------------------------------|
- ----------------------------------|
- ----------------------------------|
- -----5p4-5/8-----5p4-5/8----------|
- -0-0---------0-0---------0-0-0-0--|
PM ...         ...         .......

[Riff 1b] - [00:16] - [00:20----------| - [2x]
- ------------------------------------|
- ------------------------------------|
- ------------------------------------|
- ------------------------------------|
- -----8p7-8/12-----8p7-7/12----------|
- -0-0----------0-0----------0-0-0-0--|
PM ...          ...          .......

----------------------------------------------------------------------------

[Riff 2] - [00:20] - [00:38-----------------------------------------| - [2x]
- ------------------------------------------------------------------|
- ------------------------------------------------------------------|
- ------------------------------------------------------------------|
- ------------------------------------------------------------------|
- -----5---4-----5---4-----8p7-4h5-----5---4-----5---4-----8p7-4h5--|
- -0-0---0---0-0---0---0-0---------0-0---0---0-0---0---0-0----------|
PM ...   .   ...   .   ...         ...   .   ...   .   ...

- -----------------------------------------------------------------|
- -----------------------------------------------------------------|
- -----------------------------------------------------------------|
- -----------------------------------------------5---5-----7---7---|
- -----5---5-----7---7-----7---7-------8---8-----------------------|
- -8-8---8---8-8---8---8-8---8-----8-8---8---8-8---8---8-8---8-----|
PM ...   .   ...   .   ...   .     ...   .   ...   .   ...   .

----------------------------------------------------------------------------

[Riff 3a] - [00:38] - [00:57--------| - [2x]
- ----------------------------------|
- ----------------------------------|
- ----------------------------------|
- ----------------------------------|
- -----8---8-----8---8-----8---8p0--|
- -0-0---0-----0---0---0-0---0------|
PM ...   .     .   .   ...   .

- ---------------------------------|
- ---------------------------------|
- ---------------------------------|
- ---------------------------------|
- -----8---8-----8---8-----8---8---|
- -7-7---7-----7---7---7-7---7-----|
PM ...   .     .   .   ...   .

- ---------------------------------------|
- ---------------------------------------|
- ---------------------------------------|
- ---------------------------------------|
- -----10---10----10---10-----10---10/12-|
- -8-8----8-----8----8----8-8----8-------|
PM ...    .     .    .    ...    .

- ----------------------------------------|
- ----------------------------------------|
- ----------------------------------------|
- ----------------------------------------|
- -------12----12-----10---10-----8---8---|
- -10-10----10-----10----8----8-8---8-----|
PM .....    ..     ..    .    ...   .

[Riff 3b] - [00:38] - [00:57--------| - [2x]
- ----------------------------------|
- ----------------------------------|
- ----------------------------------|
- -----7---7-----7---7-----7---7\5--|
- ----------------------------------|
- -0-0---0-----0---0---0-0---0------|
PM ...   .     .   .   ...   .

- ---------------------------------|
- ---------------------------------|
- ---------------------------------|
- -----7---7-----7---7-----7---7---|
- ---------------------------------|
- -7-7---7-----7---7---7-7---7-----|
PM ...   .     .   .   ...   .

- ----------------------------------|
- ----------------------------------|
- ----------------------------------|
- -----8---8-----8---8-----8---8/10-|
- ----------------------------------|
- -8-8---8-----8---8---8-8---8------|
PM ...   .     .   .   ...   .

- ---------------------------------------|
- ---------------------------------------|
- ---------------------------------------|
- -------10----10-----8---8--------------|
- ------------------------------12---12--|
- -10-10----10-----10---8---8-8----8-----|
PM .....    ..     ..   .   ...    .

----------------------------------------------------------------------------

[Riff 4a] - [00:57] - [01:15----------------------------------------| - [2x]
- ------------------------------------------------------------------|
- ------------------------------------------------------------------|
- ------------------------------------------------------------------|
- ------------------------------------------------------------------|
- ---------8-----------8---------------8---------------10-----------|
- -0---------------0-------0---7-----------0---8-----------0---8----|

- -----------------------------------------------------------------|
- -----------------------------------------------------------------|
- -----------------------------------------------------------------|
- -----------------------------------------------------------------|
- ---------12----------12--------------10--------------------------|
- -/10-------------10------0---8-----------0---7-------7/8-7---5---|

[Riff 4b] - [00:57] - [01:15----------------------------------------| - [2x]
- ------------------------------------------------------------------|
- ------------------------------------------------------------------|
- ------------------------------------------------------------------|
- ---------7-----------7---------------7---------------8------------|
- ------------------------------------------------------------------|
- -0---------------0-------0---7-----------0---8-----------0---8----|

- -----------------------------------------------------------------|
- -----------------------------------------------------------------|
- -----------------------------------------------------------------|
- ---------10----------10--------------8---------------------------|
- -----------------------------------------------------------------|
- -/10-------------10------0---8-----------0---7-------7/8-7---5---|

----------------------------------------------------------------------------

[Riff 3a + 3b] - [01:15] - [01:33] - [2x]

[Riff 5] - [01:15] - [01:33]
- -----------------------------------------------------------------|
- ---6p5---------6---6p5---------6---6p5---------6---6p5---------6-|
- ---------5h7-------------5h7-------------5h7-------------5h7-----|
- -7-----0-----7---0-----0-----7---0-----0-----7---0-----0-----7---|
- -----------------------------------------------------------------|
- -----------------------------------------------------------------|
PM       .         .     .         .     .         .     .

- -----------------------------------------------------------------|
- ---6p5---------6---6p5---------6---6p5---------6---6p5-----------|
- ---------5h7-------------5h7-------------5h7-------------5h7-----|
- -0-----0-----7---0-----0-----7---0-----0-----7---0-----0-----7---|
- -----------------------------------------------------------------|
- -----------------------------------------------------------------|
PM .     .         .     .         .     .         .     .

- ------------------------------------------------------------------|
- ---10p8--------10--10p8--------10--10p8--------10--10p8--------10-|
- -7-------9h10p7----------9h10p7----------9h10p7----------9h10p7---|
- -------0---------0-----0---------0-----0---------0-----0----------|
- ------------------------------------------------------------------|
- ------------------------------------------------------------------|
PM       .         .     .         .     .         .     .

- ------------------------------------------------------------------|
- ---10p8--------10--10p8--------10--10p8--------10--10p8-----------|
- ---------9h10p7----------9h10p7----------9h10p7----------9h10p7---|
- -0-----0---------0-----0---------0-----0---------0-----0----------|
- ------------------------------------------------------------------|
- ------------------------------------------------------------------|
PM .     .         .     .         .     .         .     .

listen carefully for this its quite, in my speakers anyway.
n i think its only on the right side lol

----------------------------------------------------------------------------

[Riff 6] - [01:33] - [01:36]
- -----------------|
- -----------------|
- -----------------|
- -0~--------------|
- -0~--------------|
- -0~----------12\-|

----------------------------------------------------------------------------

[Riff 7, Guitar 1 & 2] - [01:36] - [01:52-------------------| - [2x]
- ----------------------------------------------------------|
- ----------------------------------------------------------|
- ----------------------------------------------------------|
- ----------------------------------------------------------|
- -6-----------------------6--------------------------------|
- ---0-0-0---0-0-0-0---------0-0-0---0-0-0-8-8-8-8-5-5-5-5--|
-
- ---------------------------------------------------------|
- ---------------------------------------------------------|
- ---------------------------------------------------------|
- ---------------------------------------------------------|
- -6-----------------------6-------------------------------|
- ---0-0-0---0-0-0-0---------0-0-0---0-0-0-8-8-8-8-5-5-5-5-|


- ---------------------------------------------------------|
- ---------------------------------------------------------|
- ---------------------------------------------------------|
- ---------------------------------------------------------|
- -6-----------------------6-------------------------------|
- ---0-0-0---0-0-0-0---------0-0-0---0-0-0-8-8-8-8-4-4-4-4-|
-
- ---------------------------------------------------------|
- ---------------------------------------------------------|
- ---------------------------------------------------------|
- ---------------------------------------------------------|
- -6-----------------------6-------------------------------|
- ---0-0-0---0-0-0-0---------0-0-0---0-0-0-5-5-5-5-1-1-1-1-|

----------------------------------------------------------------------------

[Riff 8] - [01:52] - [02:10]
- -----------------------------------------------------------------|
- -----------------------------------------------------------------|
- -----------------------------------------------------------------|
- -----------------------------------------------------------------|
- -0-0-0-0---0---0-0-------0-0-0-0---0---0-0-------0-0-0-0-0---0-0-|
- -1-1-1-1---1---1-1-------1-1-1-1---1---1-1-------1-1-1-1-1---1-1-|
PM ...............................................................

- -----------------------------------------------------------------|
- -----------------------------------------------------------------|
- -----------------------------------------------------------------|
- -----------------------------------------------------------------|
- -0-0-0-0---0---0-0-------0-0-0-0---0---0-0-------00000---00000---|
- -1-1-1-1---1---1-1-------1-1-1-1---1---1-1-------11111---11111---|
PM .............................................................

- -----------------------------------------------------------------|
- -----------------------------------------------------------------|
- -----------------------------------------------------------------|
- -----------------------------------------------------------------|
- -0-0-0-0---0---0-0-------0-0-0-0---0---0-0-------0---0-0-0---0-0-|
- -1-1-1-1---1---1-1-------1-1-1-1---1---1-1-------1---1-1-1---1-1-|
PM ...............................................................

- -----------------------------------------------------------------|
- -----------------------------------------------------------------|
- -----------------------------------------------------------------|
- -----------------------------------------------------------------|
- -0-0-0-0---0---0-0-------0-0-0-0---0---0-0-------11111---11111---|
- -1-1-1-1---1---1-1-------1-1-1-1---1---1-1-------11111---11111---|
PM .............................................................

----------------------------------------------------------------------------

[Riff 9, Guitar 1 & 2] - [02:10] - [02:19---------------------------| - [2x]
- ------------------------------------------------------------------|
- ------------------------------------------------------------------|
- ------------------------------------------------------------------|
- ------------------------------------------------------------------|
- -0-0-0-0---0---0-0-------0-0-0-0---0---0-0-0-0-0-0-0-0-0-0-0-0-0--|
- -0-0-0-0---0---0-0-------0-0-0-0---0---0-0-0-0-0-0-0-0-0-0-0-0-0--|
PM ...............................................................
-
- -----------------------------------------------------------------|
- -----------------------------------------------------------------|
- -----------------------------------------------------------------|
- -----------------------------------------------------------------|
- -0-0-0-0---0---0-0-------0-0-0-0---0---0-0-------0-0-0-0-0-0-0-0-|
- -0-0-0-0---0---0-0-------0-0-0-0---0---0-0-------0-0-0-0-0-0-0-0-|
PM ...............................................................

----------------------------------------------------------------------------

[Riff 2] - [02:19] - [02:37] - [2x]

[Riff 10] - [02:37] - [03:05] - [12-|x]
- ----------------------------------|
- ----------------------------------|
- ----------------------------------|
- -0-----------------4-----3---1----|
- ----------------------------------|
- ---0-0-0-0-0-1/3-0---2-2---1---0--|
PM   .....   .     .   ...   .   .

[Riff 11] - [02:46] - [03:05----------------------------------------| - [2x]
- ------------------------------------------------------------------|
- ------------------------------------------------------------------|
- ------------------------------------------------------------------|
- ------------------------------------------------------------------|
- -000-----------------00000-0-0-0-000------------------------------|
- -000-----------------00000-0-0-0-000------------------------------|
PM ...................................

guitars switch between playing riff 10 and 11

----------------------------------------------------------------------------

[Riff 3a] - [03:05] - [03:23] - [2x]

[Riff 12] - [03:05] - [03:23]
- ------------------------------------------------------------------|
- ------------------------------------------------------------------|
- -5-7-7-7-7-7-7-7-7-7-7-7-9-9-9-9-10101010101010101212121214141414-|
- -x-x-x-x-x-x-x-x-x-x-x-x-x-x-x-x-x-x-x-x-x-x-x-x-x-x-x-x-x-x-x-x--|
- -3-5-5-5-5-5-5-5-5-5-5-5-7-7-7-7-8-8-8-8-8-8-8-8-1010101012121212-|
- ------------------------------------------------------------------|

- ------------------------------------------------------------------|
- ------------------------------------------------------------------|
- -1515151515151515151515151515151512121212121212121515151514141414-|
- -x-x-x-x-x-x-x-x-x-x-x-x-x-x-x-x-x-x-x-x-x-x-x-x-x-x-x-x-x-x-x-x--|
- -1313131313131313131313131313131310101010101010101313131312121212-|
- ------------------------------------------------------------------|

- ------------------------------------------------------------------|
- ------------------------------------------------------------------|
- -1214141414141414141414141414141415151515151515151515151515151517-|
- -x-x-x-x-x-x-x-x-x-x-x-x-x-x-x-x-x-x-x-x-x-x-x-x-x-x-x-x-x-x-x-x--|
- -1012121212121212121212121212121213131313131313131313131313131315-|
- ------------------------------------------------------------------|

- ------------------------------------------------------------------|
- ------------------------------------------------------------------|
- -1717171717171717171717171717171212121212121212121515151514141414-|
- -x-x-x-x-x-x-x-x-x-x-x-x-x-x-x-x-x-x-x-x-x-x-x-x-x-x-x-x-x-x-x-x--|
- -1515151515151515151515151515151010101010101010101313131312121212-|
- ------------------------------------------------------------------|

----------------------------------------------------------------------------

[Riff 4a + 4b] - [03:23] - [03:32]

[Riff 13a] - [03:32] - [03:41]
- -----------------------------------------------------------------|
- -----------------------------------------------------------------|
- -----------------------------------------------------------------|
- ---------[7b]----------------------------------------------------|
- ---------------------8---------------8-------[5br]---10----------|
- -0---------------0-------0---7-----------0---------------0---8---|

- -----------------------------------------------------------------|
- -----------------------------------------------------------------|
- -----------------------------------------------------------------|
- -----------------------------------------------------------------|
- ---------12----------12------[5br]---10--------------------------|
- -/10-------------10------0---------------0---7-------7/8-7---5---|

[Riff 13b] - [
- -----------------------------------------------------------------|
- -----------------------------------------------------------------|
- -----------------------------------------------------------------|
- ---------[7b]--------7---------------7---------------8-----------|
- ---------------------------------------------[5br]---------------|
- -0---------------0-------0---7-----------0---------------0---8---|

- -----------------------------------------------------------------|
- -----------------------------------------------------------------|
- -----------------------------------------------------------------|
- ---------10----------10--------------8---------------------------|
- -----------------------------[5br]-------------------------------|
- -/10-------------10------0---------------0---7-------7/8-7---5---|

----------------------------------------------------------------------------

[Riff 3a + 3b] - [03:41] - [04:19-| - [4x]
[Riff 5] - [03:41] - [04:19-------| - [2x]


----------------------------------------------------------------------------|
----------------------------------------------------------------------------|
9. In Recognition ----------------------------------------------------------|
----------------------------------------------------------------------------|
----------------------------------------------------------------------------|

[Riff 1] - [00:00] - [00:51-----------------------------------------| - [4x]
- -------------0-------------------------------0--------------------|
- ---------6-----------6-------------------6-----------6------------|
- -------------------------7-------------------------------7--------|
- -----7-----------------------7-------7-----------------------7----|
- ------------------------------------------------------------------|
- -0-------------------------------0--------------------------------|

- -------------0---------------------------------0-----------------|
- -------6---------------------------------6-----------------------|
- -----------------------------------------------------------------|
- -----------------------------------------------------------------|
- -8---8---------------------------7---7---------------------------|
- -----------------------------------------------------------------|

----------------------------------------------------------------------------

[Riff 2] - [00:51] - [00:58]
- -----------------------------------------------------|
- -----------------------------------------------------|
- -----------------------------------------------------|
- -------------10------------------------------12------|
- -----8-------------------8-----------10--------------|
- -8-------8-----------8-------8---10------10----------|

----------------------------------------------------------------------------

[Riff 3] - [00:58] - [01:23]
- -----------------------------------------------------------------|
- -----------------------------------------------------------------|
- -----------------------------------------------------------------|
- -1-------3-------5-------8--\0---1-------3-------5-------8--\0---|
- -1-------3-------5-------8--\0---1-------3-------5-------8--\0---|
- -1-------3-------5-------8--\0---1-------3-------5-------8--\0---|

----------------------------------------------------------------------------

[Riff 4a] - [01:23] - [01:36]
- ---------------------------------|
- ---------------------------------|
- ---------------------------------|
- -1-------3-------5---------------|
- -1-------3-------5---------------|
- -1-------3-------5---------------|

[Riff 4b] - [01:23] - [01:36]
- ------------------------------------------------------------------|
- -------------15----------15-16\15-13--------------15----13----15--|
- -12---------------------------------------------------------------|
- ------------------------------------------------------------------|
- ------------------------------------------------------------------|
- ------------------------------------------------------------------|

- ------------------------------------------------------------------|
- -12h14p12--12-----------------------------------------------------|
- ---------14--10/12------------------10--10------------------------|
- ----------------------------------------------------12--12--------|
- ------------------------------------------------------------------|
- ------------------------------------------------------------------|

----------------------------------------------------------------------------

[Riff 1] - [01:36] - [02:02]

[Riff 5] - [02:03] - [02:29]
- -----------------------------------------------------------------|
- -----------------------------------------------------------------|
- -----------------------------------------------------------------|
- -5-------5-------1-------3-------5-------5-------1-------3-------|
- -5-------5-------1-------3-------5-------5-------1-------3-------|
- -5-------5-------1-------3-------5-------5-------1-------3-------|

----------------------------------------------------------------------------

[Riff 6] - [02:29] - [02:32]
- ---------|
- ---------|
- ---------|
- -3-------|
- -3-------|
- -3-------|

----------------------------------------------------------------------------

[Riff 3] - [02:32] - [02:58]
[Riff 4a + 4b] - [02:58] - [03:17]


----------------------------------------------------------------------------|
----------------------------------------------------------------------------|
10. Monument ---------------------------------------------------------------|
----------------------------------------------------------------------------|
----------------------------------------------------------------------------|

[Riff 1a] - [00:00] - [00:24]
- ------------------------------------------------------------------|
- ------------------------------------------------------------------|
- ------------------------------------------------------------------|
- -------------------------------------------------7-----7-----7----|
- -5-----5-----5---7-----7-----7---8-----8-----8--------------------|
- ---0000--0000--00--0000--0000--00--0000--0000--00--0000--0000--00-|
PM   ....  ....  ..  ....  ....  ..  ....  ....  ..  ....  ....  ..

- ----------------------------------------------------------------------|
- ----------------------------------------------------------------------|
- -----------------------------10--------------------101099779977----77-|
- -------------------------7-8---8-------------------------------1010---|
- -----------------------8----------------------------------------------|
- -8---8---0-8---8---888-----------5---5---0-8\7-7----------------------|
PM         .         ...                   .         ..................

- ------------------------------------------------------------------|
- ------------------------------------------------------------------|
- ------------------------------------------------------------------|
- -------------------------------------------------7-----7-----7----|
- -5-----5-----5---7-----7-----7---8-----8-----8--------------------|
- ---0000--0000--00--0000--0000--00--0000--0000--00--0000--0000--00-|
PM   ....  ....  ..  ....  ....  ..  ....  ....  ..  ....  ....  ..

- -----------------------------------------------------------------|
- -----------------------------------------------------------------|
- -----------------------------10----------------------------------|
- -------------------------7-8---8---------------------------------|
- -----------------------8---------------------------7-7-7-7-7-7-7-|
- -8---8---0-8---8---888-----------5---5---0-8\7-7---7-7-7-7-7-7-7-|
PM         .         ...                   .         .............


[Riff 1a] - [00:00] - [00:24]
- ------------------------------------------------------------------|
- ------------------------------------------------------------------|
- ------------------------------------------------------------------|
- -------------------------------------------------10----10----10---|
- -8-----8-----8---10----10----10--12----12----12-------------------|
- ---0000--0000--00--0000--0000--00--0000--0000--00--0000--0000--00-|
PM   ....  ....  ..  ....  ....  ..  ....  ....  ..  ....  ....  ..

- --------------------------------------------------------------------------|
- --------------------------------------------------------------------------|
- -----------------------------14------------------1414121210101212----1010-|
- ------------------------10-12--12--------------------------------1414-----|
- ----------------------12--------------------------------------------------|
- -8---8---0-8---8---888-----------5---5---0-8\7-7--------------------------|
PM         .         ...                   .       ........................

- ------------------------------------------------------------------|
- ------------------------------------------------------------------|
- ------------------------------------------------------------------|
- -------------------------------------------------10----10----10---|
- -8-----8-----8---10----10----10--12----12----12-------------------|
- ---0000--0000--00--0000--0000--00--0000--0000--00--0000--0000--00-|
PM   ....  ....  ..  ....  ....  ..  ....  ....  ..  ....  ....  ..

- -----------------------------------------------------------------|
- -----------------------------------------------------------------|
- -----------------------------14----------------------------------|
- ------------------------10-12--12--------------------------------|
- ----------------------12---------------------------7-7-7-7-7-7-7-|
- -8---8---0-8---8---888-----------5---5---0-8\7-7---7-7-7-7-7-7-7-|
PM         .         ...                   .         .............

----------------------------------------------------------------------------

[Riff 2] - [00:24] - [00:36-------------------------------| - [2x]
- --------------------------------------------------------|
- --------------------------------------------------------|
- --------------------------------------------------------|
- --------------------------------------------------------|
- -5/8---7----------7/10---8----------8/12---10-----------|
- -----0---0-0-0000------0---0-0-0000------0----0-0-0000--|
PM     .   ........      .   ........      .    ........

- ----------------------|
- ----------------------|
- ----------------------|
- ----------------------|
- -1212------1010-------|
- -----888888----777777-|
PM ....................

----------------------------------------------------------------------------

[Riff 3, Guitar 1 & 2] - [00:36] - [01:00-----------------------| - [2x]
- --------------------------------------------------------------|
- --------------------------------------------------------------|
- --------------------------------------------------------------|
- --------------------------------------------------------------|
- --------------------------------------------------------------|
- -8-----------7---5-------7---8---7---------------10--8---7----|
AP ...........................................................
-
- -------------------------------------------------------------|
- -------------------------------------------------------------|
- -------------------------------------------------------------|
- -------------------------------------------------------------|
- -------------------------------------------------------------|
- -12----------10--8-------10--12--11--------------15--14--11--|
AP ...........................................................


- ----------------------------------------------------------------------|
- ----------------------------------------------------------------------|
- ----------------------------------3----3--------3----3--------3-------|
- ---------------------------------/-\--/-\------/-\--/-\------/-\------|
- ---------------------------------0000-0000-----0000-0000-----0000-----|
- -12----------10--8-------10--12--0000-0000-----0000-0000-----0000-----|
AP ...............................
PM                                 ................................
-
- ----------------------------------------------------------------------|
- ----------------------------------------------------------------------|
- ----------------------------------3----3--------3----3--------3-------|
- ---------------------------------/-\--/-\------/-\--/-\------/-\------|
- ---------------------------------0000-0000-----0000-0000-----0000-----|
- -8-----------7---5-------7---8---0000-0000-----0000-0000-----0000-----|
AP ...............................
PM                                 ................................

every "-" is a 16th note. the notes marked in the / 3 \ are three notes
fit into the space of one. in this case they divide an 8th note into
three notes. so they are slightly faster than a 16th note, but they are
not 32nd notes :P i have to mark them like that or else they just look
like 16th note quads :P which they are not! just think like playing a
triplet (two 8th notes and a 16th) but instead of two short notes and
then one long one, its three notes in the same space, and then the
longer one. tricky shit, check my gp for a better way to see it :P

----------------------------------------------------------------------------

in this next section its the same idea just with a 4th note being
divided into three notes, twice in a row. making it faster than a 4th
note, but not an 8th note, you can see the 8th and 16th notes here.
listen to the song for the difference, you'll notice.

[Riff 4] - [01:00] - [01:11-------------------------------------| - [2x]
- --------------------------------------------------------------|
- --------------------------------------------------------------|
- ---------------------------------------------------3-----3----|
- -------------------------------------------------/---\-/---\--|
- -000-0-0-----000---000---000-0-0-----000-0-0-----0-0-0-0-0-0--|
- -000-0-0-----000---000---000-0-0-----000-0-0-----0-0-0-0-0-0--|
PM ...........................................................

----------------------------------------------------------------------------

[Riff 5] - [01:11] - [01:22]
- -------------------------------------------------------------|
- -------------------------------------------------------------|
- ---------------------------------------------------3-----3---|
- -------------------------------------------------/---\-/---\-|
- -000-0-0-----000---000---000-0-0-----000-0-0-----0-0-0-0-0-0-|
- -111-1-1-----111---111---111-1-1-----111-1-1-----1-1-1-1-1-1-|
PM ...........................................................

- ---------------------------------------------------------------------|
- ---------------------------------------------------------------------|
- ---------------------------------------------------3-----3-----------|
- -------------------------------------------------/---\-/---\---------|
- -000-0-0-----000---000---000-0-0-----000-0-0-----0-0-0-0-0-0-0--0--0-|
- -111-1-1-----111---111---111-1-1-----111-1-1-----1-1-1-1-1-1-1--1--1-|
PM ...................................................................

----------------------------------------------------------------------------

[Riff 6, Guitar 1 & 2] - [01:22] - [01:46]
- ------------------------------------------------------------------|
- ------------------------------------------------------------------|
- ------------------------------------------------------------------|
- -0-0-0-0-0-0-0-0-0-0-0-0-0-0-0-0-0-0-0-0-0-0-0-0-0-0-0-0-0-0-0-0--|
- -0-0-0-0-0-0-0-0-0-0-0-0-0-0-0-0-0-0-0-0-0-0-0-0-0-0-0-0-0-0-0-0--|
- -0-0-0-0-0-0-0-0-0-0-0-0-0-0-0-0-0-0-0-0-0-0-0-0-0-0-0-0-0-0-0-0--|
-
- ------------------------------------------------------------------|
- ------------------------------------------------------------------|
- -7-7-7-7-7-7-7-109-9-9-9-9-9-9-1210101010101010141212121214141414-|
- -x-x-x-x-x-x-x-x-x-x-x-x-x-x-x-x-x-x-x-x-x-x-x-x-x-x-x-x-x-x-x-x--|
- -5-5-5-5-5-5-5-8-7-7-7-7-7-7-7-108-8-8-8-8-8-8-121010101012121212-|
- ------------------------------------------------------------------|


- ------------------------------------------------------------------|
- ------------------------------------------------------------------|
- ------------------------------------------------------------------|
- -8-8-8-8-8-8-8-8-8-8-8-8-8-8-8-8-10101010101010101010101010101010-|
- -8-8-8-8-8-8-8-8-8-8-8-8-8-8-8-8-10101010101010101010101010101010-|
- -8-8-8-8-8-8-8-8-8-8-8-8-8-8-8-8-10101010101010101010101010101010-|
-
- ------------------------------------------------------------------|
- ------------------------------------------------------------------|
- -151515151414141412121212101010101414141412121212101010109-9-9-9--|
- -x-x-x-x-x-x-x-x-x-x-x-x-x-x-x-x-x-x-x-x-x-x-x-x-x-x-x-x-x-x-x-x--|
- -1313131312121212101010108-8-8-8-12121212101010108-8-8-8-7-7-7-7--|
- ------------------------------------------------------------------|


- ------------------------------------------------------------------|
- ------------------------------------------------------------------|
- ------------------------------------------------------------------|
- -0-0-0-0-0-0-0-0-0-------0---0---0-0-0-0-0-0-0-0-1010101010101010-|
- -0-0-0-0-0-0-0-0-0-------0---0---0-0-0-0-0-0-0-0-1010101010101010-|
- -0-0-0-0-0-0-0-0-0-------0---0---0-0-0-0-0-0-0-0-1010101010101010-|
-
- ------------------------------------------------------------------|
- ------------------------------------------------------------------|
- -7-7-7-7-7-7-7-7-9-9-9-9-9-9-9-1210101010101010141212121214141414-|
- -x-x-x-x-x-x-x-x-x-x-x-x-x-x-x-x-x-x-x-x-x-x-x-x-x-x-x-x-x-x-x-x--|
- -5-5-5-5-5-5-5-5-7-7-7-7-7-7-7-108-8-8-8-8-8-8-121010101012121212-|
- ------------------------------------------------------------------|


- ------------------------------------------------------------------|
- ------------------------------------------------------------------|
- ------------------------------------------------------------------|
- -8-8-8-8-8-8-8-8-8-8-8-8-8-8-8-8-10101010101010101010101010101010-|
- -8-8-8-8-8-8-8-8-8-8-8-8-8-8-8-8-10101010101010101010101010101010-|
- -8-8-8-8-8-8-8-8-8-8-8-8-8-8-8-8-10101010101010101010101010101010-|
-
- ------------------------------------------------------------------|
- ------------------------------------------------------------------|
- -151515151414141412121212101010101414141412121212101010109-9-9-9--|
- -x-x-x-x-x-x-x-x-x-x-x-x-x-x-x-x-x-x-x-x-x-x-x-x-x-x-x-x-x-x-x-x--|
- -1313131312121212101010108-8-8-8-12121212101010108-8-8-8-7-7-7-7--|
- ------------------------------------------------------------------|

----------------------------------------------------------------------------

[Riff 7] - [01:46] - [01:58------------------------------------------| - [2x]
- -------------------------------------------------------------------|
- -------------------------------------------------------------------|
- -------------------------------------------------------------------|
- ----------------------------------7-----7-----7\--5-----5-----5----|
- -5-----5--7/8\7-4-5-----5---------4-----4-----4\--1-----1-----1----|
- ---0000-00----------0000--000000004-44444-----4\--1-11111-----1----|
PM   .... ..          ....  ........  ....            ....

----------------------------------------------------------------------------

[Riff 8, Guitar 1 & 2] - [01:58] - [02:10]
- -----------------------------------------------------------------|
- -----------------------------------------------------------------|
- -----------------------------------------------------------------|
- -7-7-7-7-------------------7-7---7-7-7-7-------------------7-7-7-|
- -5-5-5-5-------------------5-5---5-5-5-5-------------------5-5-5-|
- -0-0-0-0-------------------0-0---0-0-0-0-------------------0-0-0-|
-
- -----------------------------------------------------------------|
- -----------------------------------------------------------------|
- -----------------------------------------------------------------|
- ---------------------------------------------------7755335533----|
- -------------------88775577553/5-----------------------------3/5-|
- -0-00000-0000000000--------------0-00000-0000000000--------------|
PM   ....  ....................      ....  ....................


- ------------------------------------------------------------------|
- ------------------------------------------------------------------|
- ------------------------------------------------------------------|
- ------------------------------------------------------------------|
- -------------------88775577553/5-11111111113311330000000033333333-|
- -0-00000-0000000000-----------------------------------------------|
PM   ....  ....................    ................................
-
- ------------------------------------------------------------------|
- ------------------------------------------------------------------|
- ------------------------------------------------------------------|
- -7-7-7-7-------------------7-7---7-7-7-7-----------------7-7-7-7--|
- -5-5-5-5-------------------5-5---5-5-5-5-----------------5-5-5-5--|
- -0-0-0-0-------------------0-0---0-0-0-0-----------------0-0-0-0--|

----------------------------------------------------------------------------

[Riff 3, Guitar 1 & 2] - [02:10] - [02:34] - [2x]
[Riff 6, Guitar 1 & 2] - [02:34] - [02:58]

[Riff 9] - [02:58] - [03:11]
- -----------------------------------------|
- -----------------------------------------|
- -----------------------------------------|
- -0~--------------0-----------------------|
- -0~--------------0-----------------------|
- -0~--------------0---------------0v------|

----------------------------------------------------------------------------

[Riff 10] - [03:11] - [03:41]
- ----------------------------------------------------------------|
- ----------------------------------------------------------------|
- ----------------------------------------------------------------|
- ----------------------------------------------------------------|
- -0---0---0---0---0-------0-0-0-0--------------------------------|
- -1---1---1---1---1-------1-1-1-1-------------------------0v-----|
PM ...............................

- ----------------------------------------------------------------|
- ----------------------------------------------------------------|
- ----------------------------------------------------------------|
- ----------------------------------------------------------------|
- -0---0---0---0---0-------0-0-0-0--------------------------------|
- -1---1---1---1---1-------1-1-1-1-------------------------0v-----|
PM ...............................


- ----------------------------------------------------------------|
- ----------------------------------------------------------------|
- ----------------------------------------------------------------|
- ----------------------------------------------------------------|
- -0---0---0---0---0-------0-0-0-0--------------------------------|
- -1---1---1---1---1-------1-1-1-1-------------------------0v-----|
PM ...............................


- ----------------------------------------------------------------|
- ----------------------------------------------------------------|
- ----------------------------------------------------------------|
- ----------------------------------------------------------------|
- -0---0---0---0---0-------0-0-0-0--------------------------------|
- -1---1---1---1---1-------1-1-1-1--------------------------------|
PM ...............................

----------------------------------------------------------------------------

[Symbols]

PM... Palm Mute notes with (...) under them
AP... Alternate Pick notes with (...) under them
/     Slide Up
\     Slide Down
h     Hammer On
p     Pull Off
v     Whammy Bar Down
x     Dead Note
~     Let Ring
[ ]   Harmonic (Touched or Pinch)
( x)  Play x amount of times
/3\   Thirds (explained when applied)
\\\\  Pick Slide
L     Left guitar/speaker only (explained when applied)
R     Right guitar/speaker only (explained when applied)
b     Bend
r     Release bend

:)
Tap to rate this tab
 
# A B C D E F G H I J K L M N O P Q R S T U V W X Y Z