Guitaretab - guitar tabs
Song name
# A B C D E F G H I J K L M N O P Q R S T U V W X Y Z

Mississippi John Hurt - My Creole Belle tab

----------------------------------------------------------------------------
		My Creole Belle - Mississippi John Hurt
----------------------------------------------------------------------------


Tuning: Standard



Intro
    C                F
e|--0-------0-----|---------------------------0-------0-----|
B|-------3--------|--------------------------------3--------|
G|----------------|--2--------------------------------------|
D|-------------2--|-------3---------3---------3----------3--|
A|--3-------------|-----------------------------------------|
E|----------------|--1---------1---------1---------1--------|
    
    C                   C7                   G
e|----------------------------------------|----------3----------|
B|---------------------------1---------0--|---------------------|
G|--0-----------------------------3-------|--0------------------|
D|-------2---------2---------2------------|-------0----------0--|
A|--3-------------------3-----------------|---------------------|
E|------------3---------------------------|--3----------3-------|


                                            Verse (Repeats thoughout)
    G                    C                     C
e|-------3----1----3--|----------0----------|-------0---------0--|
B|--------------------|---------------------|------------3-------|
G|--------------------|---------------------|--------------------|
D|-------0---------0--|-------2----------2--|-------2---------2--|
A|--------------------|--3----------3-------|--3---------3-------|
E|--3---------3-------|---------------------|--------------------|
[ Tab from: http://www.guitaretab.com/m/mississippi-john-hurt/114654.html ]
    F                                        C
e|-------------------------------------0--|--------------------|
B|---------------------------1----3-------|--------------------|
G|--2-------------------------------------|--0-----------------|
D|-------3---------3---------3---------3--|-------2---------2--|
A|----------------------------------------|--3-----------------|
E|--1---------1---------1---------1-------|------------3-------|

    C7                   G
e|--------------------|----------3-----------------1----0-------|
B|-------1---------0--|--------------------------------------3--|
G|------------3-------|--0--------------------------------------|
D|-------2------------|-------0----------0---------0---------0--|
A|--3---------0-------|-----------------------------------------|
E|--------------------|--3----------3---------3---------3-------|

    C         G
e|--------------------|
B|--1-----------------|
G|--------------------|
D|-------2------------|
A|--3--------------2--|
E|------------3-------|


My Creole Belle, I love her well
My darling baby, my Creole Belle
My Creole Belle, I love her well
My darling baby, my Creole Belle.
When the stars shine, Iíll call her mine
My darling baby, my Creole Belle
My Creole Belle, I love her well
My darling baby, my Creole Belle.
My Creole Belle, I love her well
My darling baby, my Creole Belle
When the stars shine, Iíll call her mine
My darling baby, my Creole Belle.  


| /  slide up
| \  slide down
| h  hammer-on
| p  pull-off
| ~  vibrato
| +  harmonic
| x  Mute note
===========================================================================
Related for My Creole Belle tab