Guitaretab - guitar tabs
Song name
# A B C D E F G H I J K L M N O P Q R S T U V W X Y Z

Mississippi John Hurt - Sliding Delta tab

----------------------------------------------------------------------------
		 Sliding Delta - Mississippi John Hurt
----------------------------------------------------------------------------

Tabbed by: Dave S. 
Email: Dlgibson@netscape.com

Tuning: Standard




Intro/Verse

    E/D             B7             
e|------4-----4----|--------5--------|--------3-------------2h3---2h3--|
B|--------5--------|------------4----|------------2--------------------|
G|-----------------|-----------------|---------------------------------|
D|------0-------0--|------4-------4--|------2-------2-------2----------|
A|--0-------0------|--0-------0------|--0-------0-------0-------0------|
E|-----------------|-----------------|---------------------------------|
[ Tab from: http://www.guitaretab.com/m/mississippi-john-hurt/114656.html ]
    E                 B7                E
e|--0-----0--------|--------2--------|--0----------------0-------0-----|
B|------------2----|--0---------0----|----------------0----2---0-------|
G|-----------------|-----------------|------------0h1------------------|
D|------2-------2--|------1-------1--|------2-----2----------2-------2-|
A|-----------------|--2--------------|---------------------------------|
E|--0-------0------|----------2------|--0-------0--------0-------0-----|


    E/D     B7*       A7      
The Slidiní Delta run right by my door
E                         B7                E        
Leaving here, babyí honey donít you want to go?
        E/D         B7*         A7
Leaving here, sweet baby, honey donít you want to go?
    E                          B7                   E
Iím going up the country and I ainít coming back no more.


   E/D         B7*        A7    
My suitcase is packed, my trunkís already gone
E                             B7                E 
Oh, tell me baby, what in the world you waiting on.



    E/D     B7*      B7     A7
e|---4---|---5---|---2---|---3---|
B|---5---|---4---|---0---|---2---|
G|---4---|---4---|---2---|---2---|
D|---0---|---4---|---1---|---2---|
A|---0---|---0---|---2---|---0---|
E|-------|-------|-------|-------|


| /  slide up
| \  slide down
| h  hammer-on
| p  pull-off
| ~  vibrato
| +  harmonic
| x  Mute note
===========================================================================
Related for Sliding Delta tab