Song name
# A B C D E F G H I J K L M N O P Q R S T U V W X Y Z

Mitchel Musso - Get Out tab

----------------------------------------------------------------------------
			     Get Out - Mitchel Musso
----------------------------------------------------------------------------

Tabbed by:XxGuitarZer0xX

Email:Spongebobs400s@hotmail.com

Tuning:Drop D

Intro
e|-----------------|
B|-----------------|
G|-777777777777777-|
D|-777777777777777-| Repeat once
A|-555555555545555-|
D|-----------------|

Verse
e|----------------------------------------------------------------------|
B|----------------------------------------------------------------------|
G|-7777777777777777-77777777777777777-44444444444444444-----------------|
D|-7777777777777777-77777777777777777-44444444444444444-555555555555555-| Repeat once
A|-5555555555555555-44444444444444444-22222222222222222-555555555555555-|
D|------------------------------------------------------555555555555555-|
PM **************** ***************** ***************** ***************

Pre Chorus
e|-----------------------------|
B|-----------------------------|
G|-----------------------------|
D|-2222222222222222-555555555~-|
A|-2222222222222222-555555555~-|
D|-2222222222222222-555555555~-|


Chorus
e|----------------------------------------------------------------------------------|
B|----------------------------------------------------------------------------------|
G|-77-77-77-44-44-44------------9999999999-77-77-77-44-44-44------------------------|
D|-77-77-77-44-44-44-5555555555-9999999999-77-77-77-44-44-44-5555555555-2222222222~-|
A|-55-55-55-22-22-22-5555555555-7777777777-55-55-55-22-22-22-5555555555-2222222222~-|
D|-------------------5555555555------------------------------5555555555-2222222222~-|

Post Chorus
e|-------|
B|-15~~~-|
G|-------|
D|-------|
A|-------|
D|-------|


Verse
e|----------------------------------------------------------------------|
B|----------------------------------------------------------------------|
G|-7777777777777777-77777777777777777-44444444444444444-----------------|
D|-7777777777777777-77777777777777777-44444444444444444-555555555555555-|
A|-5555555555555555-44444444444444444-22222222222222222-555555555555555-|
D|------------------------------------------------------555555555555555-|
PM **************** ***************** ***************** ***************

Pre Chorus
e|-----------------------------|
B|-----------------------------|
G|-----------------------------|
D|-2222222222222222-555555555~-|
A|-2222222222222222-555555555~-|
D|-2222222222222222-555555555~-|


Chorus
e|----------------------------------------------------------------------------------|
B|----------------------------------------------------------------------------------|
G|-77-77-77-44-44-44------------9999999999-77-77-77-44-44-44------------------------|
D|-77-77-77-44-44-44-5555555555-9999999999-77-77-77-44-44-44-5555555555-2222222222~-|
A|-55-55-55-22-22-22-5555555555-7777777777-55-55-55-22-22-22-5555555555-2222222222~-|
D|-------------------5555555555------------------------------5555555555-2222222222~-|


Bridge
e|---------------------------------------------------------------------|
B|---------------------------------------------------------------------|
G|---------------------------------------------------------------------|
D|-8888888888888888-4444444444444444-555555555555555-2222222222222222~-|
A|-8888888888888888-4444444444444444-555555555555555-2222222222222222~-|
D|-8888888888888888-4444444444444444-555555555555555-2222222222222222~-|


Chorus
e|------------------------------------------------------------------------------------|
B|------------------------------------------------------------------------------------|
G|-77-77-77-44-44-44-----------------------77-77-77-44-44-44------------9999999999----|
D|-77-77-77-44-44-44-5555555555-2222222222-77-77-77-44-44-44-5555555555-9999999999----|
A|-55-55-55-22-22-22-5555555555-2222222222-55-55-55-22-22-22-5555555555-7777777777----|
D|-------------------5555555555-2222222222-------------------5555555555---------------|
Repeat once more

Outro
e|---------------------------------------------------------|
B|---------------------------------------------------------|
G|-7777777777777777-77777777777777777-44444444444444444----|
D|-7777777777777777-77777777777777777-44444444444444444-5~-|
A|-5555555555555555-44444444444444444-22222222222222222-5~-|
D|------------------------------------------------------5~-|
PM **************** ***************** *****************
Tap to rate this tab
# A B C D E F G H I J K L M N O P Q R S T U V W X Y Z