Song name
# A B C D E F G H I J K L M N O P Q R S T U V W X Y Z

Mizraab - Panchi tab

Transcribed By : Maisam Shahid \m/ .TynGent mm
Email: maisam_s@hotmail.com
Song: Panchi by Mizraab
Album: Maazi Haal Mustaqbil
Tuning: D Standard (DGCFAd)


This is the way how Faraz Anwar plays it! Ive tabbed out only 30% solo,
will post it when its done, Enjoy! :)


[Intro] X 2
00:22+
d|---------------------------------------|
A|---------------------------------------|
F|---------------------------------------|
C|--14-13-14-13-14-16-17-16-17-14-13-----|
G|--14-13-14-13-14-16-17-16-17-14-13-----|
D|--12-11-12-11-12-14-15-14-15-12-11-----|

00:32+
Play this 8 times, figure out the pattern yourself
d|---------------------------------------|
A|---------------------------------------|
F|---------------------------------------|
C|--5s7-7-7-7-7--------------------------|
G|--5s7-7-7-7-7--------------------------|
D|--3s5-5-5-5-5--------------------------|

00:46+
Play This 2 times
d|---------------------------------------|
A|--4------------------------------------|
F|--3------2-----------------------------|
C|--1------2-----------------------------|
G|---------0-----------------------------|
D|---------------------------------------|

00:53+
Keep The Chord Ringing
d|---------------------------------------|
A|---------------------------------------|
F|--2------------------------------------|
C|--2------------------------------------|
G|--0------------------------------------|
D|---------------------------------------|

01:00
Play this 8 times, figure out the pattern yourself
d|---------------------------------------|
A|---------------------------------------|
F|---------------------------------------|
C|--5s7-7-7-7-7--------------------------|
G|--5s7-7-7-7-7--------------------------|
D|--3s5-5-5-5-5--------------------------|


01:14
Play This 8 Times
d|---------------------------------------|
A|---------------------------------------|
F|---------------------------------------|
C|--4-5----------------------------------|
G|--4-5----------------------------------|
D|--2-3----------------------------------|


01:28+
Play This 4 times
d|---------------------------------------|
A|--4------------------------------------|
F|--3------2-----------------------------|
C|--1------2-----------------------------|
G|---------0-----------------------------|
D|---------------------------------------|


01:43+
Play this 8 times, figure out the pattern yourself
d|---------------------------------------|
A|---------------------------------------|
F|---------------------------------------|
C|--5s7-7-7-7-7--------------------------|
G|--5s7-7-7-7-7--------------------------|
D|--3s5-5-5-5-5--------------------------|


01:57+
Play This 8 Times
d|---------------------------------------|
A|---------------------------------------|
F|---------------------------------------|
C|--4-5----------------------------------|
G|--4-5----------------------------------|
D|--2-3----------------------------------|


02:11+
Play This 4 times
d|---------------------------------------|
A|--4------------------------------------|
F|--3------2-----------------------------|
C|--1------2-----------------------------|
G|---------0-----------------------------|
D|---------------------------------------|

02:25+
Play this 8 times, figure out the pattern yourself
d|---------------------------------------|
A|---------------------------------------|
F|---------------------------------------|
C|--5s7-7-7-7-7--------------------------|
G|--5s7-7-7-7-7--------------------------|
D|--3s5-5-5-5-5--------------------------|


02:39+
Keep These chords ringing
d|---------------------------------------|
A|-------4-----------4--6--8-------------|
F|-2--3--3--3--2--3--3--5--7-------------|
C|-2--3--1--3--2--3--1--3--5-------------|
G|-0--1-----1--0--1----------------------|
D|---------------------------------------|


03:04+
Play this 8 times, figure out the pattern yourself
d|---------------------------------------|
A|---------------------------------------|
F|---------------------------------------|
C|--5s7-7-7-7-7--------------------------|
G|--5s7-7-7-7-7--------------------------|
D|--3s5-5-5-5-5--------------------------|

03:19+
Play This 8 Times
d|---------------------------------------|
A|---------------------------------------|
F|---------------------------------------|
C|--4-5----------------------------------|
G|--4-5----------------------------------|
D|--2-3----------------------------------|

03:32+
Play This 4 times
d|---------------------------------------|
A|--4------------------------------------|
F|--3------2-----------------------------|
C|--1------2-----------------------------|
G|---------0-----------------------------|
D|---------------------------------------|

03:47+
Play This 8 Times
d|---------------------------------------|
A|---------------------------------------|
F|---------------------------------------|
C|--4-5----------------------------------|
G|--4-5----------------------------------|
D|--2-3----------------------------------|

04:01+
Keep These chords ringing
d|---------------------------------------|
A|-------4-----------4--6--8-------------|
F|-2--3--3--3--2--3--3--5--7-------------|
C|-2--3--1--3--2--3--1--3--5-------------|
G|-0--1-----1--0--1----------------------|
D|---------------------------------------|


******************************************
04:19+
GUITAR SOLO [Faraz Anwar]*[C Harmonic Minor]
d|---------------------------------------|
A|---------------------------------------|
F|---------------------------------------|
C|-Just Play Around The C Harmonic Minor-|
G|-Scale,-Dont even try to play like him-|
D|------------------:P-------------------|

******************************************


04:55+
Play this 8 times, figure out the pattern yourself
d|---------------------------------------|
A|---------------------------------------|
F|---------------------------------------|
C|--5s7-7-7-7-7--------------------------|
G|--5s7-7-7-7-7--------------------------|
D|--3s5-5-5-5-5--------------------------|

05:09+
Play This 8 Times
d|---------------------------------------|
A|---------------------------------------|
F|---------------------------------------|
C|--4-5----------------------------------|
G|--4-5----------------------------------|
D|--2-3----------------------------------|

05:23+
Play This 4 times
d|---------------------------------------|
A|--4------------------------------------|
F|--3------2-----------------------------|
C|--1------2-----------------------------|
G|---------0-----------------------------|
D|---------------------------------------|

05:37+
Play this 8 times, figure out the pattern yourself
d|---------------------------------------|
A|---------------------------------------|
F|---------------------------------------|
C|--5s7-7-7-7-7--------------------------|
G|--5s7-7-7-7-7--------------------------|
D|--3s5-5-5-5-5--------------------------|

05:51+
Play This 8 Times
d|---------------------------------------|
A|---------------------------------------|
F|---------------------------------------|
C|--4-5----------------------------------|
G|--4-5----------------------------------|
D|--2-3----------------------------------|

06:06
Play This 4 times
d|---------------------------------------|
A|--4------------------------------------|
F|--3------2-----------------------------|
C|--1------2-----------------------------|
G|---------0-----------------------------|
D|---------------------------------------|


[Outro]



Lyrics:

[Chorus] 
Shaam hoee ghar aa panchi 
Shaam hoee ghar aa panchi. 

Teree yaad hai aik pyaas hai 
Tu nahi to sab khawab hai. 

[1st Verse]
Teray ashiyanay mai koee nahi 
Teray ashiyanay mai koee nahi. 

Roshnee tu hai joostujoo nahi 
Manzil nahi bus khak hai. 

[2nd Verse] 
Tera khayal hee maazi haal hai 
Mera woojood hee sab din raat hai 

Muntazir hoon umeed hai 
Majboor hoon kyun duur hai.













Tap to rate this tab
# A B C D E F G H I J K L M N O P Q R S T U V W X Y Z