Song name
# A B C D E F G H I J K L M N O P Q R S T U V W X Y Z

Mkto - Thank You tab

-------------------------------------------------------------------------------
                             Thank You- MKTO
-------------------------------------------------------------------------------
Tabbed by: sam_jaxon
E-mail: samuelshannonjackson@gmail.com

Awesome song, couldn't find correct tabs for it, so i made my own.
Tuning: Standard

Capo 2

The cords are-
D   A   F#m/C#   E   Dbm
The E/Dbm is a quick-change slide.


Note, These are just the chord shapes, listen to the song for the pattern.
  
e|----2------2------5------4/0-------------------------------------------------|
a|----3------2------7------5/2-------------------------------------------------|
D|----2------2------6------4/1-------------------------------------------------|
G|-----------------(7)---------------------------------------------------------|
B|-----------------------------------------------------------------------------|
E|-----------------------------------------------------------------------------|


|************************************

| /   slide up
| \   slide down
| h   hammer-on
| p   pull-off
| ~   vibrato
| +   harmonic
| x   Mute note
| b   Bend
| pb  Pre-bend
| br  Bend release
| pbr Pre-bend release
| brb Bend release bend

************************************
Tap to rate this tab
# A B C D E F G H I J K L M N O P Q R S T U V W X Y Z