Song name
# A B C D E F G H I J K L M N O P Q R S T U V W X Y Z

Mobile - Out Of My Head tab

INTRO
e--------------------------|
B--------------------------|
G--------------------------| [play part this once]
D-----5-3-1-0-1-0----------|
A---3-------------1--------|
E--------------------------|


e--------------------------------------------------|
B--------------------------------------------------|
G--------------------------------------------------|
D-----5-3-1-0-1-0--------------5-3-1-8-5-3-5-------| [play part this twice]
A---3-------------1----------3---------------------|
E--------------------------------------------------|


VERSE 1
e----------------------------------------------------------------------|
B---------------6666-------------------------------6666---8(x16)-------|
G--888888888888------777777777777------888888888888--------------------|
D---------------------------------8888---------------------------------|
A----------------------------------------------------------------------|
E----------------------------------------------------------------------|

e----------------------------------------------------------------------|
B---------------6666--------------------------------6666--/8-----------|
G--888888888888------777777777777------888888888888--------------------|
D---------------------------------8888---------------------------------|
A----------------------------------------------------------------------|
E----------------------------------------------------------------------|


CHORUS -listen to the song and you'll get the rhythm of it.
e----------------------------|
B----------------------------|
G---5--7--8---12-108-108-7---|
D---x--x--x----x-x-x-x-x-x---|
A---3--5--6---10-8-6-8-6-5---|
E----------------------------|


FOR THIS PART; 
Come on over, let me watch you
Let me hold you, let me touch you
e--------------------------------------------------|
B--------------------------------------------------|
G--------------------------------------------------|
D-----5-3-1-0-1-0--------------5-3-1-8-5-3-5-------| (x2)
A---3-------------1----------3---------------------|
E--------------------------------------------------|


VERSE 2
e----------------------------------------------------------------------|
B---------------6666-------------------------------6666---8(x16)-------|
G--888888888888------777777777777------888888888888--------------------|
D---------------------------------8888---------------------------------|
A----------------------------------------------------------------------|
E----------------------------------------------------------------------|

e---------------------------------------------------------------|
B---------------6666--------------------------------6666--------|
G--888888888888------777777777777------888888888888-------------|
D---------------------------------8888--------------------------|
A---------------------------------------------------------------|
E---------------------------------------------------------------|

e--------------------|
B--------------------|
G-8------------------| [repeat this little end part 16 times]
D---8--(x16)---------|
A--------------------|
E--------------------|


CHORUS -listen to the song and you'll get the rhythm of it.
e----------------------------|
B----------------------------|
G---5--7--8---12-108-108-7---|
D---x--x--x----x-x-x-x-x-x---|
A---3--5--6---10-8-6-8-6-5---|
E----------------------------|


Bridge:
e--3-----3-----3-----3-----4-----4-----4-----4------|
B---4--4--4--4--4--4--4--4--4--4--4--4--6--6--6--6--|
G-----3-----3----5------5----5-----5-----5-----5----|
D---------------------------------------------------|
A---------------------------------------------------|
E---------------------------------------------------|


After the "But I'll be watchin you.."
e---------------------------------------------------------|
B----------------------44444444---66666666----------------|
G--33333333--55555555-------------------------------------|
D---------------------------------------------------------|  (x4)
A---------------------------------------------------------|
E---------------------------------------------------------|

e---------------------------------------------------------|
B---------------------------------------------------------|
G---------------------------------------------------------|
D---------------------------------------------------------|  (x2)
A---3---3-3-3-5-6----6-6-6-5-3-8-------8-8-5-6-10---------|
E---------------------------------------------------------|


CHORUS -listen to the song and you'll get the rhythm of it.
e----------------------------|
B----------------------------|
G---5--7--8---12-108-108-7---|
D---x--x--x----x-x-x-x-x-x---|
A---3--5--6---10-8-6-8-6-5---|
E----------------------------|


ENDING
e---------------------|
B---------------------|
G---12---12---10------|
D---x----x----x-------|
A---10---9----8-------|
E---------------------|

THE END <3
Shout out to Jenny Shayna and Harry Potter.
Tap to rate this tab
# A B C D E F G H I J K L M N O P Q R S T U V W X Y Z