Song name
# A B C D E F G H I J K L M N O P Q R S T U V W X Y Z

Moby Grape - Hey Grandma chords

Highlighted       Show chord diagrams
There are 3 guitars on this track; this is just the basics, arranged for one guitar.

Intro (bluesy shuffle)

e|---------------------------------------------------------------------------|
B|---------------------------------------------------------------------------|
G|--------2------------------------------------------------------------------|
D|---2----2---2--------------------------------------------------------------|
A|---2----0---2----2--4--2--4------------------------------------------------|
E|---0--------0----0--0--0--0------------------------------------------------|


E                           (verse riff)
Hey Grandma, you're so young
E                           (verse riff)
Your old man's just a boy
E                           (verse riff)
Been a long time this time (pow-pow-pow)
E                           (verse riff)
Been a long time this time (pow-pow-pow)
                 E         D                A
Been a long time this time round, this time round
               E     D            A
Everything is upside down, upside down
             E
Sure looking good
You're looking so good
You're sure looking good

SF freak scene was on my mind
Fillmore Slim is just a-wasting time
Well I got high this time (pow-pow-pow)
Well I got high this time (pow-pow-pow)
Well I got high this time round, this time round
Everything is upside down, upside down
Cause your looking good
You're looking so good
You're sure looking good

Robitussin make me feel so fine
Robitussin and Elderberry wine
Hey Grandma
Hey Grandma
Hey Grandma
Hey Grandma...

Verse riff

e|----2/4\2\0/2-------------------------------------------------------------|
B|----0/0\0\0/0-------------------------------------------------------------|
G|----2/4\2\1/2-------------------------------------------------------------|
D|--------------------------------------------------------------------------|
A|--------------------------------------------------------------------------|
E|--------------------------------------------------------------------------|
Tap to rate this tab
# A B C D E F G H I J K L M N O P Q R S T U V W X Y Z