Song name
# A B C D E F G H I J K L M N O P Q R S T U V W X Y Z

Moby - Beautiful tab

Moby - "Beautiful"


Tuning: Standard


Intro/Verses:


This is the main part

e|---------------------------------------------------------------------------|
B|-------10--12\----------10--12\----------10--12\----------10--12\----------|
G|--7h9--------------7h9--------------7h9--------------7h9-------------------|
D|---------------------------------------------------------------------------|
A|---------------------------------------------------------------------------|
E|---------------------------------------------------------------------------|


**(but you can add this part on another guitar, or play it with the part above if you're 
for the best sound)**

e|---------------------------------------------------------------------------|
B|---------------------------------------------------------------------------|
G|---------------------------------------------------------------------------|
D|-------5---7\-----------5---7\-----------5---7\-----------5---7\-----------|
A|--5h7--------------5h7--------------5h7--------------5h7-------------------|
E|---------------------------------------------------------------------------|


A
Come on baby, Come on girl (x2)

F
I love you baby, I love you now (x2)


Chorus:

C (x32013)
Look at us we're beautiful

G (3x0003)
All the people push and pull but

D (xx0232)
Let's just go out and ride, talk about the things we've tried

C (x32013)
Look at us we're beautiful

G (3x0003)
All the people push and pull but

D (xx0232)
They'll never get inside, We've got too much to hide


Solo 1

e|---------------------------------------------------------------------------|
B|---------------------------------------------------------------------------|
G|--(7b)8~8~8~8~8~8~8~8~-----7-(7b)8r7p5-------------------------------------|
D|----------------------------------------7----------7--9\-------------------|
A|----|hold bend=======|------------------------5h7--------------------------|
E|---------------------------------------------------------------------------|


Solo 2

e|---------------------------------------------------------------------------|
B|---------------------------------------------------------------------------|
G|--(7b)8~8~8~8~8~8~8~8~-----7-(7b)8r7p5-------------------------------------|
D|----------------------------------------7----------------------------------|
A|----|hold bend=======|-----------------------------------------------------|
E|---------------------------------------------------------------------------|

e|---------------------------------------------------------------------------|
B|---------------------------------------------------------------------------|
G|--------2--5--2--------------5--------(7b)8~8~8--8r7p5\2---(p0)------------|
D|---2h5------------------5h7-----7------------------------------------------|
A|---------------------7-----------------|hold bend |------------------------|
E|---------------------------------------------------------------------------|


| /  slide up
| \  slide down
| h  hammer-on
| p  pull-off
| ~  vibrato
| +  harmonic
| x  Mute note
===============================================================================
Tap to rate this tab
 
# A B C D E F G H I J K L M N O P Q R S T U V W X Y Z