Song name
# A B C D E F G H I J K L M N O P Q R S T U V W X Y Z

Moderatto - Mil Demonios tab

Solo

e|--------------------------------------------|
b|--------------------------------------------|
g|-2h4-4-2-------2-----------2----------------|
d|---------4-2-4---4-----2h4---4--0-2-0---0---|
a|--------------------------------------2---2-|
E|--------------------------------------------|

e|---------------------------------------------------|
b|----------------------7-8-9-10---------------------|
g|----5-7--5-7b7rp5-7-5----------9b9r-7-9--9b9r-7-9--|
d|-8b------------------------------------------------|
a|---------------------------------------------------|
E|---------------------------------------------------|

e|----------------------------|
b|-14h15-15--14-15-14b--------|
g|----------------------------|
d|----------------------------|
a|----------------------------|
E|----------------------------|

e|----------------------------------------------------------|
b|-------12----10-----------12----10------------------------|
g|-9b-11----11----11--9b-11----11----11--9b9r-----9---------|
d|---------------------------------------------12---9-12----|
a|----------------------------------------------------------|
E|----------------------------------------------------------|

e|-------------------------------------------------------------------|
b|-------------------------------------------------------------------|
g|----11h14p11----11h14p11----11h14p11----11h14p11-----11------------|
d|-14----------14----------14----------14-----------14----12h14------|
a|--------------------------------------------------------------14---|
E|-------------------------------------------------------------------|

e|--------------------------------------------|
b|--------------------------------------------|
g|--------------------------------------------|
d|-------12-------12-------12-------12--------|
a|-12h14----12h14----12h14----12h14-----------|
E|--------------------------------------------|

e|-------------------------------------|
b|-------------------------12-13-15----|
g|----------------11-12-14-------------|
d|-------11-12-14----------------------|
a|-12-14-------------------------------|
E|-------------------------------------|

e|----------------------------------------------|
b|----------------------------------------------|
g|-------16-------16-------16-------16-------16-|
d|-16h18----16h18----16h18----16h18----16h18----|
a|----------------------------------------------|
E|----------------------------------------------|

e|--------------------------------------------|
b|--------------------------------------------|
g|-18-16--------------------------------------|
d|-------18-21-18--16-18-16-------------------|
a|--------------------------18--19/-----------|
E|--------------------------------------------|
Tap to rate this tab
# A B C D E F G H I J K L M N O P Q R S T U V W X Y Z