Song name
# A B C D E F G H I J K L M N O P Q R S T U V W X Y Z

Modern English - I Melt With You tab

#----------------------------------PLEASE NOTE--------------------------------#
#This file is the author's own work and represents their interpretation of the#
#song. You may only use this file for private study, scholarship, or research.#
#-----------------------------------------------------------------------------#
#-- File created with Instab - http://www.pconline.com/~smcarey/instab.html --#
#-----------------------------------------------------------------------------#

Author/Artist: Modern English
Title: I Melt With You

/ slide up
\ slide down

Standard Tuning

------------------------|-x---x---|-------------------------------------------|
------------------------|-5---6---|-------------------------------------------|
------------------------|-5---5---|-------------------------------------------|
------------------------|-5---3---|-------------------------------------------|
------------------------|---------|-------------------------------------------|
------------------------|---------|-------------------------------------------|
    Intro/Chorus Chords   C   F    Strum

----------------|---------------------------------|--|------------------------|
----------------|---------------------------------|--|------------------------|
----------------|---------------------------------|--|------------------------|
----------------|-2-----------2---3-----------3---|--|------------------------|
----------------|----3-----3----3----3-----3----5-|--|------------------------|
----------------|-------3---------------5---------|--|------------------------|
    Verse Riff

----------------|-19--17-----17---------------|--|----------|--|--------------|
----------------|-17------20-----20--------20-|--|----------|--|--------------|
----------------|-x-----------------21--21----|--|----------|--|--------------|
----------------|-----------------------------|--|-17-------|--|--------------|
----------------|-----------------------------|--|----20-19-|--|--------------|
----------------|-----------------------------|--|----------|--|--------------|
    Interlude 1

----------------|-----------------------------|--|----------------------------|
----------------|-----------------------------|--|----------------------------|
----------------|-----------------------------|--|----------------------------|
----------------|-----------------------------|--|----------------------------|
----------------|-----19----------20--19------|--|----------------------------|
----------------|-15------20--15---------20---|--|----------------------------|
    Chorus 2

-|-19--17------17-------------------19--17------17-19-17----------------------|
-|-17------20-------20--------------17------20-----------20-------------------|
-|-x-------------------21--21-21-21-x-----------------------21----------------|
-|----------------------------------------------------------------------------|
-|-------------------------------------------------------------19-19-19-19-19-|
-|----------------------------------------------------------------------------|
   A  Interlude 2                   A

--------------------------------|---------------------------------------------|
--------------------------------|---------------------------------------------|
--------------------------------|---------------------------------------------|
--------------------------------|---------------------------------------------|
-19-----------------------------|---------------------------------------------|
-----20----3/8-8--8\3-3--3/8-8--|---------------------------------------------|
           Bass "Mmm mmm mmm"


Intro: C     F     C     F

C                       F
Moving forward using all my breath
C                               F
Making love to you was never second best
C                              F
I saw the world thrashing all around your face
C                                       F
Never really knowing it was always mesh and lace

Chorus:
C                                       F
Iíll stop the world and melt with you
C                                       F
Youíve seen the difference and itís getting better all the time
C                                     F
Thereís nothing you and I wonít do
C                                     F
Iíll stop the world and melt with you


Dream of better lives the kind which never hate
Dropped in the state of imaginary grace
I made a pilgrimage to save this humans race
What Iím comprehending a race that long gone bye


Chorus

Play an Em

The futureís open wide

Solo:   C       F       C       F


Chorus

Em again

The futureís open wide

Hmmm hmmm hmmm
Hmmm hmmm hmmm hmmm
Hmmm hmmm hmmm
Hmmm hmmm hmmm hmmm

Chorus

Iíll stop the world and melt with you
Tap to rate this tab
# A B C D E F G H I J K L M N O P Q R S T U V W X Y Z