Song name
# A B C D E F G H I J K L M N O P Q R S T U V W X Y Z

Modern English - I Melt With You tab

Modern English – I Melt Into You

2 Guitars
Standard Tuning
Enjoy! I’m pretty sure it’s right

Guitar 1

     C Chord     F Chord
e------0------|-----1-------|
B------1------|-----1-------|
G------0------|-----2-------|
D------2------|-----3-------|
A------3------|-----0-------|
E------0------|-----0-------|

Intro: C   F   C   F

Verses and Chorus:

C			F
Moving forward using all my breath
C				F
Making love to you was never second best
C			       F
I saw the world thrashing all around your face
C					F
Never really knowing it was always mesh and lace

Chorus:
C					F
I’ll stop the world and melt with you
C					F
You’ve seen the difference and it’s getting better all the time
C				      F
There’s nothing you and I won’t do
C				      F
I’ll stop the world and melt with you


Guitar 2:
Does not play in first 2 choruses

Verses 1 and 2: Repeat as needed
e----------------|---------------|---------------|----------------|
B----------------|---------------|---------------|----------------|
G----------------|---------------|---------------|----------------|
D---2-------2----|--3-------3-0--|--2-------2----|--3-------3-0---|
A-----3---3---3--|----3-0-3------|----3---3---3--|----3-0-3-------|
E-------3--------|---------------|------3--------|----------------|


Bridge 1
e-------------------------------|---------------|----------------|
B-------------------------------|8-7---8-7---8-7|-8-7---8-7---8-7|
G-------------9-9-9-9-9-99999999|----9-----9----|-----9-----9----|
D-------------------------------|---------------|----------------|
A-------------------------------|---------------|----------------|
E-------------------------------|---------------|----------------|
   open wide…
e----------------|---------------|---------------|----------------|
B----------------|---------------|---------------|----------------|
G-------5--------|-----10-9------|-------5-------|-----10-9-------|
D----5-----5-----|---7------10---|----5-----5----|---7------10----|
A----------------|---------------|---------------|----------------|
E----------------|---------------|---------------|----------------|

Chorus 3
e----------------|---------------|---------------|----------------|
B----------------|---------------|---------------|----------------|
G-------5--------|-----10-9------|-------5-------|-----10-9-------|
D----5-----5-----|---7------10---|----5-----5----|---7------10----|
A----------------|---------------|---------------|----------------|
E----------------|---------------|---------------|----------------|

Bridge 2
e----------------|-0-0-0-0-0-0-0-|-0-0-0-0-0-0-0-|-0-0-0-0-0-0-0-0|
B----------------|---------------|---------------|----------------| stops at
G----------------|---------------|---------------|----------------| start of 
D----------------|---------------|---------------|----------------| hmmm’s
A----------------|---------------|---------------|----------------|
E----------------|---------------|---------------|----------------|
                  The future’s open wide

Chorus 4
e----------------|---------------|---------------|----------------|
B----------------|---------------|---------------|----------------|
G-------5--------|-----10-9------|-------5-------|-----10-9-------|
D----5-----5-----|---7------10---|----5-----5----|---7------10----|
A----------------|---------------|---------------|----------------|
E----------------|---------------|---------------|----------------|
 you and I won't do…               and melt with you…

Then changes to Ending:
e----------------|---------------|---------------|----------------|
B----------------|--12--10-9-----|---------------|--12--10-9------|
G--10--10--10--10|-----------10--|-10--10--10--10|-----------10---|
D----------------|---------------|---------------|----------------|
A----------------|---------------|---------------|----------------|
E----------------|---------------|---------------|----------------|
 you and I won’t do…               and melt with you…


Verse 1
Moving forward using all my breath
Making love to you was never second best
I saw the world thrashing all around your face
Never really knowing it was always mesh and lace

Chorus 1
I'll stop the world and melt with you
You've seen the difference and
It's getting better all the time
There's nothing you and I won't do
I'll stop the world and melt with you

Verse 2
Dream of better lives the kind which never hate
Dropped in the state of imaginary grace
I made a pilgrimage to save this human race
Never comprehending a race that long gone by

Chorus 2
I'll stop the world and melt with you
You've seen the difference and it's getting better all the time
There's nothing you and I won't do
I'll stop the world and melt with you

Bridge 1
The future's open wide
The future's open wide

Chorus 3
I'll stop the world and melt with you
I've seen some changes but it's getting better all the time
There's nothing you and I won't do
I'll stop the world and melt with you

Bridge 2
The future's open wide
hmmm hmmm hmmm
hmmm hmmm hmmm hmmm
hmmm hmmm hmmm
hmmm hmmm hmmm hmmm

Chorus 4
I'll stop the world and melt with you
You've seen the difference and it's getting better all the time
There's nothing you and I won't do
I'll stop the world and melt with you
I'll stop the world and melt with you...
Tap to rate this tab
# A B C D E F G H I J K L M N O P Q R S T U V W X Y Z