Song name
# A B C D E F G H I J K L M N O P Q R S T U V W X Y Z

Modest Mouse - Air tab

The Air
Modest Mouse
Everywhere And His Nasty Parlour Tricks [EP]

Incredible band, thats all I have to say.


Guitar I is in Drop D, and Guitar II doesn't matter cause no low notes are played.

Guitar I Intro
0:07
e|------------------|
B|------------------|
G|------------------|
D|------------------|
A|-----2-5-3-2-0-3--|
D|-2-5--------------|x7

Intro Pt II
e|------------------|
B|------------------|
G|------------------|
D|------------------|
A|---2-0-2-2/5\2-0--|
E|-2--------------5-| about 10x, until fadeout

Guitar II Intro Fill
0:17
e|---------|
B|---------|
G|---------|
D|---5^^---|
A|-7-----7-|
E|---------| repeat until fadeout

Guitar I Verse
1:11
e|----------------------|
B|----------------------|
G|----------------------|
D|----------------------|
A|-5h7-7-10\\-0h2-2h5-2-|
D|----------------------|x4

e|-------------------|
B|-------------------|
G|-------------------|
D|-------------------|
A|---------0h2-2h5-2-|
D|-0h2-2h5-----------|x4

Repeat the Verse until 2:06, rest until 2:34, then repeat it until the end

Guitar II Verse
1:23
e|-----|
B|-----|
G|-----|
D|-7h9-|
A|-----|
E|-----|

1:31
e|------------------------|
B|------------------------|
G|------------------------|
D|-7h9-12~-12p10h12p10-9~-|
A|------------------------|
E|------------------------|

1:40
e|-----|
B|-----|
G|-----|
D|-7-9-|
A|-----|
E|-----|x3

e|----------|
B|----------|
G|----------|
D|------7-9-|
A|-7-10-----|
E|----------| (not 100% about this part)

Easy enough
Tap to rate this tab
# A B C D E F G H I J K L M N O P Q R S T U V W X Y Z