Song name
# A B C D E F G H I J K L M N O P Q R S T U V W X Y Z

Modest Mouse - 3rd Planet tab

-------------------------------------------------------------------------------
			     3rd Planet - Modest Mouse
-------------------------------------------------------------------------------
Tabbed by: mu5ic1slif3
Credits: mu5ic1slif3,
Email: colton.engler@gmail.com

Tuning: Standard

Chords- *If you know the actual names for any of these chords please email me and let me 
what they are. I will credit anyone who helps in any way in the tab.

B Minor:

e|--2--|
B|--2--|
G|--4--|
D|--4--|
A|--2--|
E|-----|

Variation of A Minor:

e|--0--|
B|--0--|
G|--4--|
D|--2--|
A|--0--|
E|-----|

Intro 1
e|---------------------------------------------------------------------------|
B|--------0-----------0-----------0------------------------------------------|
G|--1-----------1-----------1-----------1h2p1h2p1h2p1------------------------|
D|-----2-----2-----2-----2-----2-----2---------------------------------------|
A|---------------------------------------------------------------------------|
E|---------------------------------------------------------------------------|

Intro 2
e|--------------------------------------------------+1-----------------------|
B|---------------------------------------------------------------------------|
G|--1-----1h2-2p1-1-----1h2-2p1-1-----1h2-2p1-1------------------------------|
D|-----2-------------2-------------2-------------2---------------------------|
A|---------------------------------------------------------------------------|
E|---------------------------------------------------------------------------|

Verse 1 1/2:
e|---------------------------------------------------------------------------|
B|--------0-----------0-----------0------------------------------------------|
G|--1-----------1-----------1-----------1h2p1h2p1h2p1------------------------|
D|-----2-----2-----2-----2-----2-----2---------------------------------------|
A|---------------------------------------------------------------------------|
E|---------------------------------------------------------------------------|

 2/2
e|--------------------------------------------------+1-----------------------|
B|---------------------------------------------------------------------------|
G|--1-----1h2-2p1-1-----1h2-2p1-1-----1h2-2p1-1------------------------------|
D|-----2-------------2-------------2-------------2---------------------------|
A|---------------------------------------------------------------------------|
E|---------------------------------------------------------------------------|

1/2(x3)

Everything that keeps me together is falling apart
I've got this thing that I consider my only art of fucking people over.

My boss just quit the job
Says he's going out to find blind spots and he'll do it.

The third planet is sure that they're being watched
By an eye in the sky that can't be stopped
When you get to the promised land
Your going to shake that eye's hand


Chorus 1:
e|--2-----2--------0---------------------------------------------------------|
B|--2-----2--------0---------------------------------------------------------|
G|--4-x5--4-x5-----4-x5--4-x5------------------------------------------------|
D|--4-----4--------2---------------------------------------------------------|
A|--2-----2--------0---------------------------------------------------------|
E|---------------------------------------------------------------------------|
(x7)

Verse 2:
e|--------0------------------------------------------------------------------|
B|---------------------------------------------------------------------------|
G|-----1-----1-----1/2--------------------------1h2p1h2----------------------|
D|--2-------------------------------2--------2-------------------------------|
A|--------------4-------4--2-----4-----4--0----------------------------------|
E|----------------------------4----------------------------------------------|
 x8

Chorus 2: This is the same thing as the 1st chorus, just a different strumming pattern, 
a bit tricky but I think this is something like it:
e|--/\--/\--/\--/\--||--x--||--x--||--/\--||--/\--||-------------------------|
B|--||--||--||--||--||--x--||--x--||--||--||--||--||-------------------------|
G|--||--||--||--||--||--x--||--x--||--||--||--||--||-------------------------|
D|--||--||--||--||--||--x--||--x--||--||--||--||--||-------------------------|
A|--||--||--||--||--||--x--||--x--||--||--||--||--||-------------------------|
E|--||--||--||--||--\/--x--\/--x--\/--||--\/--||--\/-------------------------|

Verse 3:
e|--------0------------------------------------------------------------------|
B|---------------------------------------------------------------------------|
G|-----1-----1-----1/2--------------------------1h2p1h2----------------------|
D|--2-------------------------------2--------2-------------------------------|
A|--------------4-------4--2-----4-----4--0----------------------------------|
E|----------------------------4----------------------------------------------|
 x8

Outro:
e|---------------------------------------------------------------------------|
B|--------0-----------0-----------0------------------------------------------|
G|--1-----------1-----------1-----------1h2p1h2p1h2p1------------------------|
D|-----2-----2-----2-----2-----2-----2---------------------------------------|
A|---------------------------------------------------------------------------|
E|---------------------------------------------------------------------------|
 x2


| /  slide up
| \  slide down
| h  hammer-on
| p  pull-off
| ~  vibrato
| +  harmonic
| x  Mute note
===============================================================================
Tap to rate this tab
 
# A B C D E F G H I J K L M N O P Q R S T U V W X Y Z