Song name
# A B C D E F G H I J K L M N O P Q R S T U V W X Y Z

Modest Mouse - Education tab

-------------------------------------------------------------------------------
			     Education - Modest Mouse
-------------------------------------------------------------------------------
Tabbed by: Traces
Email:
Comment:

Ello chazas, this is Traces and this is my first tab ever so it might be a lil rough
the edges... I hope it helps some people out there though, so thanks for actually takin
to look at this. Please comment and rate, even if you fully hate it and think it sucks; 
need to know how to be better lol      thanks.

Tuning: standard

::***Intro***::

nothing, only bass, and we're not lookin at this tab for that, are we?


::***Fill in between verses***::

e|---------------------------------------------------5-----------|
B|------8--8--7--5--------3--------5/8--8--7------7-----7--------|
G|---------------------4-----------------------------------------|
D|---------------------------------------------------------------|
A|---------------------------------------------------------------|
E|---------------------------------------------------------------|

e|---------------------------------------------------------------|
B|-----8--8--7--5------------3---3-3-3------------3--------------|
G|--------------------4---4-----------------4--4-----5--4--------|
D|---------------------------------------------------------------|
A|---------------------------------------------------------------|
E|---------------------------------------------------------------|
     << This second bit gets a bit altered
     at the end a few times

::***Bit in third verse***::
(mess around with this because there's some kinda effect in the song for it)

<< Starts in third line of words
   after "It didn't seem we lived enough to even get to die"

e|-----------7/12---7-7-7-----7/12---7-7-7--------------------------|
B|------------------------------------------------------------------|
G|------------------------------------------------------------------|
D|------------------------------------------------------------------|
A|------------------------------------------------------------------|
E|------------------------------------------------------------------|


e|-----------7/10---7-7-7-----7/10---7-7-7--------------------------|
B|------------------------------------------------------------------|
G|------------------------------------------------------------------|
D|------------------------------------------------------------------|
A|------------------------------------------------------------------|
E|------------------------------------------------------------------|

e|----------5/8---5-5-5-----5/8---5-5-5-------------------------------|
B|--------------------------------------------------------------------|
G|--------------------------------------------------------------------|
D|--------------------------------------------------------------------|
A|--------------------------------------------------------------------|
E|--------------------------------------------------------------------|

e|---------5/7---5-5-5-----5/8---5-5-5--------------------------------|
B|--------------------------------------------------------------------|
G|--------------------------------------------------------------------|
D|--------------------------------------------------------------------|
A|--------------------------------------------------------------------|
E|--------------------------------------------------------------------|

::***Chorus***::

e|-------7--7--6--5----------------------------------------------|
B|----------------------5----------------------------------------|
G|---------------------------------------------------------------| X4
D|---------------------------------------------------------------|
A|---------------------------------------------------------------|
E|---------------------------------------------------------------|

::***Bridge***::  [2:20]

e|-----------------------------------------------------------------|
B|-----------------------------------------------------------------|
G|-----------------------------------------------------------------|
D|-----------------------------------------------------------------|
A|-----------------------------------------------------------------|
E|-----------5/7------------------------10\7\3---------------------|

e|-----------------------------------------------------------------|
B|-----------------------------------------------------------------|
G|-----------------------------------------------------------------|
D|-----------9--9--8--7------------------------12--9---------------|
A|--------------------------7------9--10--10-----------------------|
E|-----------------------------------------------------------------|

In the ending of the song, repeat:
::***Chorus***::
      and
::***Fill in between verses***::

And to finish:

e|--------------------12~-------------------------------|
B|--------------------12~-------------------------------|
G|--------------------12~-------------------------------|
D|------------------------------------------------------|
A|------------------------------------------------------|
E|------------------------------------------------------|


Hope you enjoyed it...


| /  slide up
| \  slide down
| h  hammer-on
| p  pull-off
| ~  vibrato
| +  harmonic
| x  Mute note
===============================================================================
Tap to rate this tab
 
# A B C D E F G H I J K L M N O P Q R S T U V W X Y Z