Song name
# A B C D E F G H I J K L M N O P Q R S T U V W X Y Z

Modest Mouse - Wild Pack Of Family Dogs tab

THIS SONG IS ALL DOWN STROKES

INTRO-
-------'--------'--------'-----'--------'--------'----------'---------'
-------'--------'--------'-----'--------'--------'----------'---------'
-----5-'-----5--'----4---'-----'--------'--------'----------'---------'
-----5-'-----5--'------5-'---0-'------5-'------5-'-------5--'---X-----'
-3-----'--3-----'--3-----'---0-'------5-'------5-'-------5--'---X-----'
-------'--------'--------'-----'---3----'---3----'----3-----'---X-----'


-----'---------'----------------------'
-----'---------'----------------------'
---5-'------5--'---4---5/7--5--4-0----'
---5-'------5--'----------------------'
-3---'---3-----'---3------------------'
-----'---------'----------------------'
>>>>>>>>>>>>>>>>>>>>>>>>>>>>>>>>>>>>>>>>>>>>>>>>>>>>>>>>>>>>>>>>>>>>>>>>>>>>


A WILD PACK OF FAM-ILY DOGS CAME RUN-NING THROUGH THE YARD ONE DAY
------'-------------------------------------------------------------'
------'-------------------------------------------------------------'
-5--5-'-4------------------------5----5----4------------------------'
-5--5-'-5---0---5---5----5---X---5----5-----------0---5----5---5----'
-3--3---3---0---5---5----5---X---3----3----3------0---5----5---5----'
----------------3---3----3---X------------------------3----3---3----'


MY FA-THER GOT HIS GUN HE SHOT IT UP THEY RAN A-WAY O-KAY
------------------------------------------------------------'
------------------------------------------------------------'
-X-5---5----4---------------------5---5----4--5--7--5--4--0-'
-X-5---5----5---0---5--5--X--0----5---5---------------------'
-X-3---3----3---0---5--5--X--0----3---3----3----------------'
--------------------3--3--X---------------------------------'
.>>>>>>>>>>>>>>>>>>>>>>>>>>>>>>>>>>>>>>>>>>>>>>>>>>>>>>>>>>>>>>>>>>>>>>>>>>
------'-------------------------------------------------------------'
------'-------------------------------------------------------------'
-5--5-'-4------------------------5----5----4------------------------'
-5--5-'-5---0---5---5----5---X---5----5-----------0---5----5---5----'
-3--3---3---0---5---5----5---X---3----3----3------0---5----5---5----'
----------------3---3----3---X------------------------3----3---3----'


------------------------------------------------------------'
------------------------------------------------------------'
-X-5---5----4---------------------5---5----4--5--7--5--4--0-'
-X-5---5----5---0---5--5--X--0----5---5---------------------'
-X-3---3----3---0---5--5--X--0----3---3----3----------------'
--------------------3--3--X---------------------------------'


A WILD PACK OF FAM-ILY DOGS CAME RUN-NING THROUGH THE YARD ONE DAY
----------------------------------------------------------------------'
----------------------------------------------------------------------'
5--5----4--------------------------5---5----4-------------------------'
5--5----5--0----5--5---5------X----5---5------------0---5----5---5----'
3--3----3--0----5--5---5------X----3---3----3-------0---5----5---5----'
----------------3--3---3------X-------------------------3----3---3----'


& AS MY OWN DOG RAN A--WAY WITH THEM I DIDN'T SAY MUCH OF ANY-THING AT ALL
----------------------------------------------------------------------------|
----------------------------------------------------------------------------|
X------5---5---4-------------------------5-----5----4--5---75---4----0------|
X------5---5---5---0--5---5---5------0---5-----5------------------------5---|
X------3---3---3---0--5---5---5------0---3-----3----3-----------------------|
----------------------3---3---3---------------------------------------------|


DIDN'T SAY MUCH OF AN-Y-THING DIDN'T SAY MUCH OF A-NY-THING
---------------------------------------------------------------'
---------------------------------------------------------------'
5------5----4------------------5-----5----4--------------------'
5------5---------0-5--5---5----5-----5---------0--5-5--5-------'
3------3----3----0-5--5---5----3-----3----3----0--5-5--5-------'
-------------------3--3---3-----------------------3-3--3-------'

I DIDN'T SAY MUCH OF ANY-THING AT ALL
------------------------------------------'
------------------------------------------'
X--5-----5----4----5--7-5--4----0---------'
X--5-----5--------------------------5-----'
X--3-----3----3---------------------------'
------------------------------------------'
>>>>>>>>>>>>>>>>>>>>>>>>>>>>>>>>>>>>>>>>>>>>>>>>>>>>>>>>>>>>>>>>>>>>>>>>>>>>

AND THATS THE SONG JUST PLAY THE REST OF THE
CHORUS AND VERSES LIKE TABBED TILL YOU COME
TO THE END,
BOBBYTABASCO@YAHOO.COM
Tap to rate this tab
# A B C D E F G H I J K L M N O P Q R S T U V W X Y Z