Song name
# A B C D E F G H I J K L M N O P Q R S T U V W X Y Z

Modest Mouse - The View tab

/=slide the chord

   A     C     A     C     A   C  B  A   A
X--5/--8--8----5/--8--8----5/--8--7--5---5--|
X--5/--8--8----5/--8--8----5/--8--7--5---5--|
X--6/--9--9----6/--9--9----6/--9--8--6---6--|
X--7/--10-10---7/--10-10---7/--10-9--7---7--|
X--7/--10-10---7/--10-10---7/--10-9--7---7--|
X--5/--8--8----5/--8--8----5/--8--7--5---5--|


X---------------------------------------------------------------|
X--1--3---3-3-3-3-3-3--1-1-1-1-1-1-1-1--1--3---3-3-3-3-3-3--1---|
X--2--4---4-4-4-4-4-4--2-2-2-2-2-2-2-2--2--4---4-4-4-4-4-4--2---|continued
X--2--5---5-5-5-5-5-5--3-3-3-3-3-3-3-3--2--5---5-5-5-5-5-5--3---|
X---------------------------------------------------------------|
X---------------------------------------------------------------|

X------------------------------------|
X--1p0-1p0--1p0-1p0-1p0-1p0----------|
X--2---2----2---2---2---2------------|
X--3---3----3---3---3---3------------|
X------------------------------------|
X------------------------------------|

Also look for my 3rd Version Never ending Math Equation tab
Tap to rate this tab
# A B C D E F G H I J K L M N O P Q R S T U V W X Y Z