Song name
# A B C D E F G H I J K L M N O P Q R S T U V W X Y Z

Modest Mouse - Custom Concern tab

(Pt. One)
e|----------------------------------------------------------|
B|----------------------------------------------------------|
G|-------2------------------2--------2------------------2---|
D|----------2h4--------2h4--------------2h4--------2h4------|
A|-5--5----------5--5----------5--5----------5--5-----------|
E|----------------------------------------------------------|


(Pt.Two)
e|----------------------------------------------------------|
B|----------------------------------------------------------|
G|----------------------------------------------------------|
D|----------------------------------------------------------|
A|-2--2--5--5-5--2--2--5--5-5--2--2--5--5-5--2--2--5--5-5---|
E|----------------------------------------------------------|

(Pt.Three)
e|-------------------------------------------------------------------|
B|-------------------------------------------------------------------|
G|-------------------------------------------------------------------|
D|-------------------------------------------------------------------|
A|---4h5p4---4h5p4---4h5p4---4h5p4---4h5p4---4h5p4---4h5p4---4h5p4---|
E|-5-------5-------5-------5-------5-------5-------5-------5---------|

(Pt.Four)
e|-------------------------------------------------------|
B|-------------------------------------------------------|
G|-------------------------------------------------------|
D|---------------------------------------------2---------|
A|------2h5--5--------2h5--5--------2h5--5--5-----5--4---|
E|-3--3---------3--3----------3--3-----------------------|
 (Outro pt.1)
e|-------------------------------------------------------------------------|
B|-------------------------------------------------------------------------|
G|---------7/9-7--6-7-6----------------------------------------------------|
D|---4-5/7--------------7-5--4-5-4--------------7/9-7--6-7-6---------------|
A|-5-------------------------------5------4-5/7--------------7-5--4-5-4----|
E|--------------------------------------5-------------------------------5--|

(Outro pt.2)
e|----------------------------------------------------------------|
B|----------------------------------------------------------------|
G|----------------------------------------------------------------|
D|---------------------4---5---7----------------------------------|
A|----------4---5--7----------------------2---4--5---4---2--------|
E|--5---7--------------------------3---5--------------------------|
Tap to rate this tab
# A B C D E F G H I J K L M N O P Q R S T U V W X Y Z