Song name
# A B C D E F G H I J K L M N O P Q R S T U V W X Y Z

Modest Mouse - Waydown tab

THIS IS IN OPEN G TUNING,                                                                
         the fruit that ate it self,

                         intro
------------------------------------------------------------'
------------------------------------------------------------'
--9-X-7-X--6---6-6---0--4/6---------------------------------'  4X
-------------------------------7----7-7---------------------'
--9-X-7-X--6---6-6---0--4/6----6----6-6---------------------'
-------------------------------7----7-7---------------------'


                INTERLUDE


------------------------------------------------------------'
------------------------------------------------------------'
------------6------6-----6--x---4---4-----------------------'
------------7------7-----7--x-------------------7--7--------' 2x
-9-9---7-7--6------6-----6--x---4---4---4/6-----6--6--------'
------------------------------------------------7--7--------'



on the way down they saw alot they don't remember
------------------------------------------------------------'
------------------------------------------------------------'
------------6---6---6--x---4-4------------------------------'
------------7---7---7--x------------7--7--------------------'
-9-9---7-7--6---6---6--x---4-4-4/6--6--6--------------------'
------------------------------------7--7--------------------'

and if you ask them how they couldn't say how they got there
------------------------------------------------------------'
------------------------------------------------------------'
------------6------6-----6--x---4---4-----------------------'
------------7------7-----7--x-------------------7--7--------'
-9-9---7-7--6------6-----6--x---4---4---4/6-----6--6--------'
------------------------------------------------7--7--------'


and if you want them now you could just pull on the lever
------------------------------------------------------------'
------------------------------------------------------------'
------------6------6-----6--x---4---4-----------------------'
------------7------7-----7--x-------------------7--7--------'
-9-9---7-7--6------6-----6--x---4---4---4/6-----6--6--------'
------------------------------------------------7--7--------'


   and    say    i'm    hung    up      on      gr-av-ity
------------------------------------------------------------'
------------------------------------------------------------'
------------6------6-----6--x---4---4-----------------------'
------------7------7-----7--x-------------------7--7--------'
-9-9---7-7--6------6-----6--x---4---4---4/6-----6--6--------'
------------------------------------------------7--7--------'

  you   move  your  mouth  and  you  start  to  talk
------------------------------------------------------------'
------------------------------------------------------------'
------------6------6-----6--x---4---4-----------------------'
------------7------7-----7--x-------------------7--7--------'
-9-9---7-7--6------6-----6--x---4---4---4/6-----6--6--------'
------------------------------------------------7--7--------'

you  close  your  eyes  and  then  loose  the th-o-ught
------------------------------------------------------------'
------------------------------------------------------------'
------------6------6-----6--x---4---4-----------------------'
------------7------7-----7--x-------------------7--7--------'
-9-9---7-7--6------6-----6--x---4---4---4/6-----6--6--------'
------------------------------------------------7--7--------'

whats mine is mine and whats your's you probably g-ot,and we all fall
------------------------------------------------------------'
------------------------------------------------------------'
------------6------6-----6--x---4---4-----------------------'
------------7------7-----7--x-------------------7--7--------'
-9-9---7-7--6------6-----6--x---4---4---4/6-----6--6--------'
------------------------------------------------7--7--------'

<<<<<<<<<<<<<<<<<<<<<<<<<<<<<<<<<<<<<<<<<<<<<<<<<<<<<<<<<<<<<<<<<<<<<<<<<

------------------------------------------------------------'
------------------------------------------------------------'
------------6------6-----6--x---4---4-----------------------'
------------7------7-----7--x-------------------7--7--------'
-9-9---7-7--6------6-----6--x---4---4---4/6-----6--6--------'
------------------------------------------------7--7--------'


here is the second verse

on the way down they saw alot they don't remember
and if you ask them they'd say that gravity is how they got there
and if you want them now just pull on the lever
and say i'm hung up on this decade
they found themselves on a schools sand house
they created pagers to collect all their calls
whats mine is mine and whats yours
and we all always fall we fall and we fall
,<<<<<<<<<<<<<<<<<<<<<<<<<<<<<<<<<<<<<<<<<<<<<<<<<<<<<<<<<<<<<<<<<<<<<<<<<<

------------------------------------------------------------'
------------------------------------------------------------'
--9-X-7-X--6---6-6---0--4/6---------------------------------'  6x
-------------------------------7----7-7---------------------'
--9-X-7-X--6---6-6---0--4/6----6----6-6---------------------'
-------------------------------7----7-7---------------------'

------------------------------------------------------------'
------------------------------------------------------------'
------------6------6-----6--x---4---4-----------------------'
------------7------7-----7--x-------------------7--7--------' 2x
-9-9---7-7--6------6-----6--x---4---4---4/6-----6--6--------'
------------------------------------------------7--7--------'


thats how i see fit,
bobbytabasco@yahoo.com
Tap to rate this tab
 
# A B C D E F G H I J K L M N O P Q R S T U V W X Y Z