Song name
# A B C D E F G H I J K L M N O P Q R S T U V W X Y Z

Modest Mouse - Florida tab

Help us improve GuitareTab! Take a short survey!
Title: Florida
Artist: Modest Mouse
Album: We Were Dead Before the Ship Even Sank

tabbed by Steve "SPiV" Perreira IV


Guitar I - Johnny Marr
Guitar II - Isaac Brock


--

Guitar I - Johnny Marr


main riff/verse
e--5-5-5-5-5-5-3----5-5---5---|--2------2---3-----3----5-55-3-5-|
B--5-5-5-5-5-5-3--------5---5-|-----3-----3-----3---3--5-55-3-5-|
G-----------------------------|---------------------------------|
D-----------------------------|---------------------------------|
A-----------------------------|---------------------------------|
E-----------------------------|---------------------------------|


chorus
e--8-88-8888-8888-8888-|--10-10-10-10--10-10-10-10--10-10-10-10--10-10-10-10-|
B--8-88-8888-8888-8888-|--10-10-10-10--10-10-10-10--10-10-10-10--10-10-10-10-|
G--9-99-9999-9999-9999-|--11-11-11-11--11-11-11-11--11-11-11-11--11-11-11-11-|
D----------------------|-----------------------------------------------------|
A----------------------|-----------------------------------------------------|
E----------------------|-----------------------------------------------------|

e--10-10-10-10--10-10-10-10--10-10-10-10--10-10-10-10-|--8--8--8--8-8-88--|
B--10-10-10-10--10-10-10-10--10-10-10-10--10-10-10-10-|--8--8--8--8-8-88--|
G--11-11-11-11--11-11-11-11--11-11-11-11--11-11-11-11-|--9--9--9--9-9-99--|
D-----------------------------------------------------|-------------------|
A-----------------------------------------------------|-------------------|
E-----------------------------------------------------|-------------------|


last verse/outro
e------------------------------|--------------------------|
B------------------------------|--------------------------|
G------------------------------|--------------------------|
D------------------------------|--------------------------|
A------------------------------|--------------------------|
E--12s5---5--5-5-12s5---5--5-5-|--12s5---5--5-5-3b--------|x2


--

Guitar II - Isaac Brock


main riff/verse
e-----------------|-----------------|-----------------------------------|
B-----------------|-----------------|-----------------------------------|
G--------5---5-0--|--------5---5-0--|--------5p0------------------------|
D--7-7-7-5-7-5-0--|--------5-----0--|--4-4-4-----5-5--5-5-5-55-7-77-5-4-|
A--7-7-7---7------|--7-7-7---7------|--5-5-5----------------------------|
E-----------------|-----------------|-----------------------------------|


harmonic fills
e---------|---------|
B---------|--[5]----|
G--[5]----|---------|
D--[5]----|---------|
A---------|---------|
E---------|---------|
*bend with floyd rose*


chorus
e-----------------|---------------|----------------|----------------|
B-----------------|---------------|----------------|----------------|
G-----------------|---------------|----------------|----------------|
D---------------4-|--4--4-4-4-4-4-|--7--7--7-7-7-7-|--5--5--5-5-5-5-|
A--7--9--10-9-7-5-|--5--5-5-5-5-5-|--5--5--5-5-5-5-|--3--3--3-3-3-3-|
E-----------------|---------------|----------------|----------------|


breakdown
e-----------------------------|
B--8--7s5---5-/7-5------------|
G-------------------7--5s4----|
D-----------------------------|
A-----------------------------|
E-----------------------------|


bridge
e-----------------------------|-----------------------------------|
B--8--7-5---5--7-5------------|-----------------------------------|
G-------------------7--5-4----|--2--4-0---2--4-0---2--4-4--0-0----|
D-----------------------------|-----------------------------------|
A-----------------------------|-----------------------------------|
E-----------------------------|-----------------------------------|x3

e------------------|-------------------------------------|
B--x-x-x-x-x-x-x-x-|-------------------------------------|
G--x-x-x-x-x-x-x-x-|-------------------------------------|
D--x-x-x-x-x-x-x-x-|--4--4--4--4--5--5-5--5--7-7-7--5--4-|
A------------------|-------------------------------------|
E------------------|-------------------------------------|x2


--

tabbed by Steve "SPiV" Perreira IV
Related for Florida tab