Song name
# A B C D E F G H I J K L M N O P Q R S T U V W X Y Z

Modest Mouse - Sleepwalking tab

-------------------------------------------------------------------------------
                             Sleepwalkin' - Modest Mouse
-------------------------------------------------------------------------------
Tabbed by: The gerk
E-mail: Zoinktron@yahoo.com

Tuning: Standard

MM does several variations of the solo throughout the song, I put in a couple of 
them for you to mess around with.
Intro
e|----8----3----1----3----4----3----1----------------------------------------|
B|----8----5----3----5----6----5----3----------------------------------------|
G|---------------------------------------------------------------------------|
D|---------------------------------------------------------------------------|
A|---------------------------------------------------------------------------|
E|---------------------------------------------------------------------------|
         C            am         F           G  
e|---------------------------------------------------------------------------|
B|----------1-----------1------------1------------0--------------------------|
G|--------0---0-------2---2--------2---2--------0---0------------------------|
D|------2------2----2-------2----3-------3----0-------0----------------------|
A|----3-----------0----------------------------------------------------------|
E|-----------------------------1------------3--------------------------------|

e|---------------------------------------------------------------------------|
B|---------------------------------------------------------------------------|
G|----5--5--5--5h7p5--4--4--4--4h5p4-----------------------------------------|
D|------------------------------------5--5--5--5/3--3--3/2--2h3p2------------|
A|-----------------------------------------------------------------3---------|
E|---------------------------------------------------------------------------|

e|---------------------------------------------------------------------------|
B|---------------------------------------------------------------------------|
G|----5--5--5--5h7p5--4--4--4--4h5p4-----------------------------------------|
D|------------------------------------5--5--5--5/3--3--3/2--2--2p0-----------|
A|---------------------------------------------------------------------------|
E|---------------------------------------------------------------------------|




************************************

| /   slide up
| \   slide down
| h   hammer-on
| p   pull-off
| ~   vibrato
************************************
Tap to rate this tab
# A B C D E F G H I J K L M N O P Q R S T U V W X Y Z