Song name
# A B C D E F G H I J K L M N O P Q R S T U V W X Y Z

Mohammed Rafi - An Evening In Paris chords

Highlighted       Show chord diagrams
An Evening In Paris - Mohammed Raffi

Tabbed by Shakti
Email: shakti_102@yahoo.co.uk

A7 - x02020
Dm7M - xx0221

Chorus:

    Dm                      A7 A
Aji Aisa mauka phir kahan mile-ga

e|----------------------------------|
B|-8-10-----------------------------|
G|----------------------------------|
D|-5-7------------------------------|
A|----------------------------------|
E|----------------------------------|

 Dm                      A7 A
Humara jaisa dil kahan mile-ga


C         Bb
Aao tumko dikhlata hoon

A           Gm
Paris ki ek rangeen shaam

Dm                      C
Dekho Dekho Dekho Dekho Dekho

Dm            Dm7M  Dm
An evening in pa -  ris

Chorus

Guitar Solo:
                        ~
e |-----5-4-5---------5-4------------|
B |-3-6-------3-3-3h6----------------|
G |----------------------------------|
D |----------------------------------|
A |----------------------------------|
E |----------------------------------|  X2

                                        ~
e |----------12-11-12----------------12----|
B |-10-10h11----------10-10-10-10h11----10-|
G |----------------------------------------|
D |----------------------------------------|
A |----------------------------------------|
E |----------------------------------------|    X2

Dm C Dm Dm

Verse (X2):

A                    Dm
Dekho ye pariyaan ki toli

A                   Dm
Meethi meethi jinki boli

C                      Cadd9  C
Kya kya dil par rang jama -   ye

Dm                      A
Jalwon ki ye aankh mein choli


Verse

Chorus

Saxophone solo - Dm Dm Dm C C Dm

Violin Solo - Dm C Dm Dm

Verse

Chorus

Guitar solo

Verse

Chorus

Dm            Dm7M  Dm
An evening in pa -  ris

Dm            Dm7M  Dm
An evening in pa -  ris

Dm            Dm7M  Dm
An evening in pa -  ris
Tap to rate this tab
# A B C D E F G H I J K L M N O P Q R S T U V W X Y Z