Song name
# A B C D E F G H I J K L M N O P Q R S T U V W X Y Z

Moistboyz - The Tweaker tab

Help us improve GuitareTab! Take a short survey!
E--------------------------l
H--14-15-14-15-14-15-14-15-l
G--------------------------l x4
D--------------------------l
A--------------------------l
E--------------------------l

E-----------------------------------------------------l
H-----------------------------------------------------l
G----------------88-8-8-8-8-8--55-5-5-5-5-5-------3---l
D--55-5-5-5-5-5--88-8-8-8-8-8--55-5-5-5-5-5--33-3-3-3-l x2
A--55-5-5-5-5-5--66-6-6-6-6-6--33-3-3-3-3-3--33-3-1-3-l
E--33-3-3-3-3-3------------------------------11-1---1-l




BAM

http://www.moistboyz.com/
Related for The Tweaker tab