Song name
# A B C D E F G H I J K L M N O P Q R S T U V W X Y Z

Molotov Solution - Enslaved tab

Artist: Molotov Solution
Album: The Harbringer
Song: Enslaved

Tuning: Drop G (G-D-G-C-E-A)

Key
 ____________________
| pm * = palm-mute   |
| ~ = let ring       |
| * = pinch harmonic |
| _ = silence string |
| ~~~ = vibrato      |
| " = trem pick      |
| / = slide          |
|____________________|


Intro                 (x3)|
|-------------------------|-----------------------|
|-------------------------|-----------------------|
|-------------------------|-----------------------|
|-------------------------|-----------------------|
|-------------------------|-------------------0_--|
|-0000-~-00-~-0000_-0000_-|-0000-~-00-~-0000000_--| (repeat)
pm***    *    ****  ****    ***    *    *******



Riff 1                  (x3)|
|---------------------------|-----------------------|
|---------------------------|-----------------------|
|---------------------------|-----------------------|
|---------------------------|-----------------------|
|-0000-~-00-~-0000-~-0000-~-|-0000-~-00-~-0000000_--|
|-0000-~-00-~-0000-~-0000-~-|-0000-~-00-~-0000000_--| (repeat)
pm****   **   ****   ****     ****   **   *******


Riff 1 Lead                    (x4)|
|----------------------------------|
|-------10-~-~-----------------9-~-|
|-7-~-~--------8-~-~-7-~-~-8-~-----|
|----------------------------------|
|----------------------------------|
|----------------------------------|



Riff 2                          (x4)|                                (x4)|
|-----------------------------------|------------------------------------|
|-----------------------------------|------------------------------------|
|-----------------------------------|------------------------------------|
|-----------------------------------|------------------------------------|
|-0-8-7--------0-4-~-0-3-4-3-1------|------------------------------------|
|-0-8-7-4/7~~~-0-4-~-0-3-4-3-1-3~~~-|-0-8-7-4-7~~~-0-4~~~-0-3-4-3-1-3~~~-|
pm*            *     * * * * *



Riff 3
|----------------------------------------|
|----------------------------------------|
|----------------------------------------|
|----------------------------------------|
|-111_-111_---111_-111_-111_-111_-1-111_-|
|-111_-111_---111_-111_-111_-111_-1-111_-|
pm***  ***    ***  ***  ***  ***  * ***

|----------------------------------------|
|----------------------------------------|
|----------------------------------------|
|----------------------------------------|
|-000_-000_---000_-000_-000_-000_-0-000_-|
|-000_-000_---000_-000_-000_-000_-0-000_-| (repeat)
pm***  ***    ***  ***  ***  ***  * ***


Riff 3 Lead
|---------------------------------------------|
|---------------------------------------------|
|-8----11------8----11----8--11----8----11----|
|--888---88888--888---888--8---888--888---888-|
|---------------------------------------------|
|---------------------------------------------|
pm ***   *****  ***   ***  *   ***  ***   ***

|---------------------------------------------|
|---------------------------------------------|
|-7----10------7----10----7--10----7----10----|
|--777---77777--777---777--7---777--777---777-|
|---------------------------------------------|
|---------------------------------------------| (repeat)
pm ***   *****  ***   ***  *   ***  ***   ***



Riff 4
(gtr. I)
|------------------------------------------|
|------------------------------------------|
|------------------------------------------|
|-8-~-~-~-~-------7-~-~-~--------8888------|
|-5-~-~-~-~-3-4-3-4-~-~-~-/9--8-------8888-|
|-----------3-4-3--------------------------|
pm          * * *

(gtr. II)
|-------------------------------------------------------------|
|-------------------------------------------------------------|
|-------------------------------------------------------------|
|-8-~-~-~-~-------7-~-~-~-~-~-~--8888-------------------------|
|-5-~-~-~-~-3-4-3-4-~-~-~-~-~-~-------8888--------------------|
|-----------3-4-3--------------------------1111-~-11~-1111_---|
pm          * * *                          ***    *   ****



>>> Riff 1 (x2)

End of Riff 1 lead (with lots of break-up and a whammy dive)
|------------------|
|------------------|
|-8----------------|
|----6-~-~-~-~-~-~-|
|------------------|
|------------------|


Breakdown                         (x4)|
|-------------------------------------|
|-------------------------------------|
|-------------------------------------|
|---------------1-~-1-~-1-~-1-~-1-1-~-|
|-0000-~-0000-~-0-~-0-~-0-~-0-~-0-0-~-|
|-1110-~-1110-~-0-~-0-~-0-~-0-~-0-0-~-|
pm****   ****   *   *   *   *   * *

                                  (x4)|
|-------------------------------------|
|-------------------------------------|
|-------------------------------------|
|---------------1-~-1-~-1-~-1-~-1-1-~-|
|---------------0-~-0-~-0-~-0-~-0-0-~-|
|-1110-~-1110-~-0-~-0-~-0-~-0-~-0-0-~-|
pm              *   *   *   *   * *



>>> Riff 2



Riff 5 (both gtrs)         (x2)|
|------------------------------|
|------------------------------|
|------------------------------|
|------------------------------|
|----8"-------8"-9"-8"-----8"--|
|-0"-------0"-----------0"-----|


(Gtr.I)                    (x2)|
|------------------------------|
|------------------------------|
|------------------------------|
|------------------------------|
|----8"-------8"-9"-8"-----8"--|
|-0"-------0"-----------0"-----|

(Gtr.II)
|-------------------------------------------------------------------|
|-------------------------------------------------------------------|
|-------------------------------------------------------------------|
|-------------------------------------10"------10"-11"-10"-----10"--|
|----12"------12"-13"-12"-----12"-----------------------------------|
|-0"-------0"--------------0"------0"-------0"--------------0"------|


(Both Gtrs)
|--------------------------|
|--------------------------|
|-3--~--~--~--~--~--~------|
|-2--~--~--~--~--~--~------|
|-0--~--~--~--~--~--~--0_--|
|-0--~--~--~--~--~--~--1_--|
pm                     *


Outro                                                          (x2)|
|------------------------------------------------------------------|
|------------------------------------------------------------------|
|------------------------------------------------------------------|
|------------------------------------------------------------------|
|-2-3-4-3-5-4-3-6_--5-4_--4-3-2_--2-3-4-3-5-4-3-6_--5-4_--4-3-2-*--|
|-3-4-5-4-6-5-4-7_--6-5_--5-4-3_--3-4-5-4-6-5-4-7_--6-5_--5-4-3-3b-|
pm* * * * * * * *   * *   * * *   * * * * * * * *   * *   * * *

                              (x3)|
|---------------------------------|----------------------------------||
|---------------------------------|----------------------------------||
|---------------------------------|----------------------------------||
|---------------------------------|----------------------------------||
|-2-3-4-3-5-4-3-6-~-5-4-~-4-3-2-~-|-2-3-4-3-5-4-3-6_--5-4_--4-3-2-*--||
|-3-4-5-4-6-5-4-7-~-6-5-~-5-4-3-~-|-3-4-5-4-6-5-4-7_--6-5_--5-4-3-3b-||
pm* * * * * * * *   * *   * * *     * * * * * * * *   * *   * * *



Really hard tuning to pick sounds out of, but I know this is dead on.
No one had seriously attempted any MS and I was tired of not knowing
how to play any of their stuff so...here you go. More to come off of
"Harbinger".
Tap to rate this tab
 
# A B C D E F G H I J K L M N O P Q R S T U V W X Y Z