Song name
# A B C D E F G H I J K L M N O P Q R S T U V W X Y Z

Moments In Tragedy - Youre The Only One tab

Artist - Moments In Tragedy
Song - You're the Only One
Album - Moments In Tragedy

Tuning: E Standard eADGBE

Key:
~ = ring out
. = palm mute
/ = slide


Intro: clean

    G#        E         B         F#
E|--4~--------0~--------2~-------2~---------------|
B|--4~--------0~--------3~-------2~---------------|
G|--5~--------1~--------3~-------3~---------------|
D|--6~--------2~--------3~-------4~---------------|
A|--6~--------2~--------2~-------4~---------------|
e|--4~--------0~-----------------2~---------------|

Intro/verse 1: distortion

E|---------------------------------------------------------------|
B|---------------------------------------------------------------|
G|-----------------------------------------------------4-3-------|
D|--6666-6---6-6--6666-6---6-6--6666-2---2-2--2222-2---x-x-------|
A|--6666-6---6-6--6666-6---6-6--6666-2---2-2--2222-2---2-1-------|
e|--4444-4---4-4--4444-4---4-4--4444-0---0-0--0000-0-------------| x3
    ....          ....          ....          ....


Chorus 1:

       G#           E            B            F#
E|---------------------------------------------------------------|
B|---------------------------------------------------------------|
G|----------------------------4444444444-------------------------|
D|--6666666666---2222222222---4444444444---4444444444------------|
A|--6666666666---2222222222---2222222222---4444444444------------|
e|--4444444444---0000000000----------------2222222222------------|

       G#           E            B            F#       E
E|---------------------------------------------------------------|
B|---------------------------------------------------------------|
G|----------------------------4444444444-------------------------|
D|--6666666666---2222222222---4444444444---4444444444--2~--------|
A|--6666666666---2222222222---2222222222---4444444444--2~--------|
e|--4444444444---0000000000----------------2222222222--0~--------|


Verse 2:

E|---------------------------------------------------------------|
B|---------------------------------------------------------------|
G|-----------------------------------------------------4-3-------|
D|--6666-6---6-6--6666-6---6-6--6666-2---2-2--2222-2---x-x-------|
A|--6666-6---6-6--6666-6---6-6--6666-2---2-2--2222-2---2-1-------|
e|--4444-4---4-4--4444-4---4-4--4444-0---0-0--0000-0-------------| x3
    ....          ....          ....          ....


Chorus 2:
       G#           E             B           F#
E|---------------------------------------------------------------|
B|---------------------------------------------------------------|
G|----------------------------4444444444-------------------------|
D|--6666666666---2222222222---4444444444---4444444444------------|
A|--6666666666---2222222222---2222222222---4444444444------------|
e|--4444444444---0000000000----------------2222222222------------|

       G#           E            B            F#
E|---------------------------------------------------------------|
B|---------------------------------------------------------------|
G|----------------------------4444444444-------------------------|
D|--6666666666---2222222222---4444444444---4444444444------------|
A|--6666666666---2222222222---2222222222---4444444444------------|
e|--4444444444---0000000000----------------2222222222------------|

Instead of ending with a E on the second chorus, end with this before the bridge.

    G#     E      B      F#
E|-------------------------------------|
B|-------------------------------------|
G|----------------4~-------------------|
D|--6~-----2~-----4~-----4~------------|
A|--6~-----2~-----2~-----4~------------|
e|--4~-----0~------------2~------------|


Bridge:

E|----------------|----------------|
B|----------------|----------------|
G|----------------|----------------|
D|--66-4-66-------|-6666-6---------|
A|--66-4-66-------|-6666-6---------|
e|--44-2-44--x17--|-4444-4---------|
                    ....


Chorus 3:

       G#           E            B            F#
E|---------------------------------------------------------------------|
B|---------------------------------------------------------------------|
G|----------------------------4444444444-------------------------------|
D|--6666666666---2222222222---4444444444---4444444444------------------|
A|--6666666666---2222222222---2222222222---4444444444------------------|
e|--4444444444---0000000000----------------2222222222------------------|

       G#           E            B            F#
E|---------------------------------------------------------------------|
B|---------------------------------------------------------------------|
G|----------------------------4444444444-------------------------------|
D|--6666666666---2222222222---4444444444---4444444444------------------|
A|--6666666666---2222222222---2222222222---4444444444------------------|
e|--4444444444---0000000000----------------2222222222------------------|

       G#           E            B            F#
E|---------------------------------------------------------------------|
B|---------------------------------------------------------------------|
G|----------------------------4444444444-------------------------------|
D|--6666666666---2222222222---4444444444---4444444444------------------|
A|--6666666666---2222222222---2222222222---4444444444------------------|
e|--4444444444---0000000000----------------2222222222------------------|

       G#           E            B            F#       E
E|---------------------------------------------------------------------|
B|---------------------------------------------------------------------|
G|----------------------------4444444444-------------------------------|
D|--6666666666---2222222222---4444444444---4444444444--2~--------------|
A|--6666666666---2222222222---2222222222---4444444444--2~--------------|
e|--4444444444---0000000000----------------2222222222--0~--------------|


Outro:

E|---------------------------------------------------------------------|
B|---------------------------------------------------------------------|
G|---------------------------------------------------------------------|
D|--------------------------------------------66-4-66-4-66-4-6/4-------|
A|--------------------------------------------66-4-66-4-66-4-6/4-------|
e|--44-2-44-2-44-2-4/2---44-2-44-2-44-2-4/2---44-2-44-2-44-2-4/2-------|

E|---------------------------------------------------------------------|
B|---------------------------------------------------------------------|
G|---------------------------------------------------------------------|
D|--66-4-66-4-66-4-6/4---66-4-66-4-66-4-6/4---66-4-66-4-66-4-6/4-6/4---|
A|--66-4-66-4-66-4-6/4---66-4-66-4-66-4-6/4---66-4-66-4-66-4-6/4-6/4---|
e|--44-2-44-2-44-2-4/2---44-2-44-2-44-2-4/2---44-2-44-2-44-2-4/2-4/2---|


Thats it, enjoy! Any questions or suggestions on anything, email me at clatha12@yahoo.com.

Thanks eurichXcore for posting the bass tab first and making this a lot easier to figure out!
Tap to rate this tab
# A B C D E F G H I J K L M N O P Q R S T U V W X Y Z